» » »

Funeral For Yesterday Bass tabs (ver.2)

Artists:  A B C D E F G H I J K L M N O P Q R S T U V W X Y Z # 

Funeral For Yesterday Bass tabs (ver.2)

Kittie
Rating:
5/5 (1 vote)

Hard to play? Try these video lessons and learn fast.
                Band: Kittie

If the tabs is incorrect or if I've forgotten something, feel free to mail me:

Intro
G|---------------------------------|---------------------------|
D|---------------------------------|---------------------------|
A|-333-333-333-333-----------------|-333-333-333-333-----------|
D|-----------------666-666-666-666-|-----------------666-666-6-|

Verse
G|------------------------------------------------|
D|------------------------------------------------|
A|-33333-33333-666-555-111------------------------| 4x
D|-------------------------66666-66666-1111111111-|

Pre Chorus 
G|-----------------|
D|-----------------|
A| check our pulse |
D|---3~-------6~---|

Chorus
G|----------------------------------------|
D|----------------------------------------|
A|-333-333-3-5-6-8-6-5--------6-5-3-6-5-1-| 4x
D|---------------------666-666------------|

Repeat Verse, Pre Chorus and Chorus.
(Let the last note of the Chorus ring.)

Bridge
G|--------------------|
D|--------------------|
A|-3~----3~-----------|
D|----6~----666666666-|

Repeat Chorus

Chorus 2
G|----------------------------------------|
D|----------------------------------------|
A|-----------------------------------3333-| 3x
D|-0000-0000-0000-0000-8888-8888-3333-----|
 |                                        |
G|----------------------------------------|
D|----------------------------------------|
A|-----------------------------------3~---|
D|-0000-0000-0000-0000-8888-8888----------|
            
Hard to play? Try these video lessons and learn fast. | Correct




comments powered by Disqus
↑ Back to top | Tablatures and chords are parodies/interpretations of the original songs. You may use it for private study, scholarship, research or language learning purposes only