>
 >
Funeral For Yesterday

Funeral For Yesterday Guitar Tabs

Kittie - Funeral For Yesterday chords, tabs, tablatures, lyrics

Guitar lessons | Add/correct | Request | Top 50 tabs Artists:  A B C D E F G H I J K L M N O P Q R S T U V W X Y Z 0-9

Funeral For Yesterday Guitar Tabs – Kittie

CD, Sheet music, Poster

Do you like Funeral For Yesterday? Share with your friends now
Bass TabsBass Tabs v2ChordsChords v2TabsUkuleleUkulele v2
Album:Funeral For Yesterday
Tuning:CGCFAD

i cant believe no one's tabbed out this kick ass song!


Guitar1- Left Speaker
Guitar2- Right Speaker


Guitar 1

Intro-0:00-0:12             |do this part again at 0:06
D|--------------------------|------------------------------------------------|
A|--------------------------|------------------------------------------------|
F|--------------------------|------------------------------------------------|
C|--3-2---------------------|----3-2-----------------------------------------|
G|------3-5-----------------|--------3-5-------------------------------------|
C|--------------------------|------------------------------------------------|

Verse-0:13-0:40                                                  |
D|---------------------------------------------------------------|-----------|
A|---------------------------------------------------------------|-----------|
F|---------------------------------------------------------------|-----------|
C|-0--0000--00-----333-222-------8-8888-88--33333---3h5p3---3x's-|-5--8------|
G|-0--0000--00-------------333---8-8888-88--33333--------3-------|-5--8------|
C|-0--0000--00-------------------8-8888-88--33333----------------|-5--8------|
   .  ....  ..     ... ... ...   . .... ..  .....

Chorus-0:40-1:05 |play at 0:47|play at 0:53|play at 1:00
D|---------------|------------|------------|---------------------------------|
A|---------------|------------|------------|---------------------------------|
F|---------------|------------|------------|---------------------------------|
C|--3-2----------|-3-2--------|-3-2--------|-3-2-----------------------------|
G|------3-5------|-----3-5----|-----3-5----|-----3-5-------------------------|
C|---------------|------------|------------|---------------------------------|

Verse-1:07-1:34
D|---------------------------------------------------------------|-----------|
A|---------------------------------------------------------------|-----------|
F|---------------------------------------------------------------|-----------|
C|-0--0000--00-----333-222-------8-8888-88--33333---3h5p3---3x's-|-5--8------|
G|-0--0000--00-------------333---8-8888-88--33333--------3-------|-5--8------|
C|-0--0000--00-------------------8-8888-88--33333----------------|-5--8------|
   .  ....  ..     ... ... ...   . .... ..  .....

Chorus-1:35-1:59     1:41         1:47        1:54
D|---------------|------------|------------|---------------------------------|
A|---------------|------------|------------|---------------------------------|
F|---------------|------------|------------|---------------------------------|
C|--3-2----------|-3-2--------|-3-2--------|-3-2------------8~---------------|
G|------3-5------|-----3-5----|-----3-5----|-----3-5--------8~---------------|
C|---------------|------------|------------|----------------8~---------------|

Breakdown-2:00-2:13
D|---------------------------------------------------------------------------|
A|---------------------------------------------------------------------------|
F|---------------------------------------------------------------------------|
C|-0~---8~---0~--88888888--------3-2-----------------------------------------|
G|-0~---8~---0~--88888888------------3-5-------------------------------------|
C|-0~---8~---0~--88888888----------------------------------------------------|
                 ........

Chorus-2:14-2:39     2:20         2:26         2:33
D|---------------|------------|------------|---------------------------------|
A|---------------|------------|------------|---------------------------------|
F|---------------|------------|------------|---------------------------------|
C|--3-2----------|-3-2--------|-3-2--------|-3-2-----------------------------|
G|------3-5------|-----3-5----|-----3-5----|-----3-5-------------------------|
C|---------------|------------|------------|---------------------------------|


Outro-2:40-3:24    2:50       2:57
D|-------------|-----------|-----------|-------------------------------------|
A|-------------|-----------|-----------|-------------------------------------|
F|-------------|-----------|-----------|-------------------------------------|
C|--5-4--------|--5-4------|--5-4------|----9------------0~------------------|
G|------5-7----|------5-7--|------5-7--|-----------------0~------------------|
C|-------------|-----------|-----------|-----------------0~------------------|

------------------------------------------------------------------------------
Guitar 2

Intro-0:01-0:12
D|---------------------------------------------------------------------------|
A|---------------------------------------------------------------------------|
F|---------------------------------------------------------------------------|
C|-0---------8---------2x's--------------------------------------------------|
G|-0-13x's---8-13x's---------------------------------------------------------|
C|-0---------8---------------------------------------------------------------|

verse-0:13-0:40
D|---------------------------------------------------------------------------|
A|---------------------------------------------------------------------------|
F|---------------------------------------------------------------------------|
C|-0-0000-000--8-8888-33333----------5---8-----------------------------------|
G|-0-0000-000--8-8888-33333----4x's--5---8-----------------------------------|
C|-0-0000-000--8-8888-33333----------5---8-----------------------------------|
   . .... ...  . .... .....

Chorus-0:40-1:05
D|---------------------------------------------------------------------------|
A|---------------------------------------------------------------------------|
F|---------------------------------------------------------------------------|
C|-0---------8---------4x's--------------------------------------------------|
G|-0-13x's---8-13x's---------------------------------------------------------|
C|-0---------8---------------------------------------------------------------|

Verse-1:07-1:34
D|---------------------------------------------------------------------------|
A|---------------------------------------------------------------------------|
F|---------------------------------------------------------------------------|
C|-0-0000-000--8-8888-33333----------5---8-----------------------------------|
G|-0-0000-000--8-8888-33333----4x's--5---8-----------------------------------|
C|-0-0000-000--8-8888-33333----------5---8-----------------------------------|
   . .... ...  . .... .....
Chorus-1:35-1:59
D|---------------------------------------------------------------------------|
A|---------------------------------------------------------------------------|
F|---------------------------------------------------------------------------|
C|-0---------8---------5x's--------------------------------------------------|
G|-0-13x's---8-13x's---------------------------------------------------------|
C|-0---------8---------------------------------------------------------------|

Breakdown-2:00-2:13
D|---------------------------------------------------------------------------|
A|---------------------------------------------------------------------------|
F|---------------------------------------------------------------------------|
C|-0~---8~---0~--88888888----------------------------------------------------|
G|-0~---8~---0~--88888888----------------------------------------------------|
C|-0~---8~---0~--88888888----------------------------------------------------|
                 ........

Chorus-2:14-2:39
D|---------------------------------------------------------------------------|
A|---------------------------------------------------------------------------|
F|---------------------------------------------------------------------------|
C|-0---------8---------4x's--------------------------------------------------|
G|-0-13x's---8-13x's---------------------------------------------------------|
C|-0---------8---------------------------------------------------------------|

Outro-2:40-3:24
D|---------------------------------------------------------------------------|
A|---------------------------------------------------------------------------|
F|---------------------------------------------------------------------------|
C|-7777777777 1010101010101010-------------------0---------------------------|
G|-7777777777-1010101010101010---5x's------------0---------------------------|
C|-7777777777-1010101010101010-------------------0---------------------------|

Kittie is most deff. the eziest band to play, im still shocked to see that no one tabbed 
except the chords

ENJOY!





Comments


Popular Kittie tabs & chords
Paperdoll Remix Bass Tabs
My Plague Chords
Brackish Tabs
Charlotte 1 Tabs
Get Off Tabs
Johhny Tabs
Paperdoll 6 Tabs
Pink Lemonade Tabs
Spit Tabs
Wolves 2 Tabs


Song lyrics



↑ Back to top | Tablatures and chords are parodies/interpretations of the original songs. You may use it for private study, scholarship, research or language learning purposes only
© 2014 AZChords.com Contact us | Privacy policy | DMCA | Add/correct tabs | Request tabs | Top 50 tabs