» » »

Kinks, Sunny Afternoon Tabs (ver.2)

Artists:  A B C D E F G H I J K L M N O P Q R S T U V W X Y Z # 

Sunny Afternoon Tabs (ver.2)

Kinks Tabs
 Rating:
4/5 (4 votes)
Sunny Afternoon lessons Tabs too difficult? Try these video lessons and learn fast
                ____________________________________________________________________________


------The kinks - Sunny Afternoon - Power Version For Electrical Dudes!-----

____________________________________________________________________________

 
 -----
 INTRO
 -----


|-----------------------------------------|
|-----------------------------------------|
|-----------------------------------------|
|-----------------------------------------|
|-5-5--3-3--2-2--1-1--0-0-----------------|
|--------------------------3-3--1-1--0-0--|




 -------
 VERSE 1
 -------


  Taxman's taken all my dough,   And left me in my stately home, 
|-------------------------------|-------------------------------|
|-------------------------------|-------------------------------|
|-7---7---7---7---5---5---5---5-|-----------------5---5---5---5-|
|-7---7---7---7---5---5---5---5-|-3---3---3---3---5---5---5---5-|
|-5---5---5---5---3---3---3---3-|-3---3---3---3---3---3---3---3-|
|-------------------------------|-1---1---1---1-----------------|


  Lazin' on a sunny afternoon
|-------------------------------|
|-------------------------------|
|-2---2-------------------------|
|-2---2---5---5---3---3---2---2-|
|-0---0---5---5---3---3---2---2-|
|---------3---3---1---1---0---0-|


    And i cant sail my yot,       He's taken everything ive got,
|-------------------------------|-------------------------------|
|-------------------------------|-------------------------------|
|-7---7---7---7---5---5---5---5-|-----------------5---5---5---5-|
|-7---7---7---7---5---5---5---5-|-3---3---3---3---5---5---5---5-|
|-5---5---5---5---3---3---3---3-|-3---3---3---3---3---3---3---3-|
|-------------------------------|-1---1---1---1-----------------|


   Lazin' on a sunny afternoon
|-------------------------------|
|-------------------------------|
|-2---2-------------------------|
|-2---2---5---5---3---3---2---2-|
|-0---0---5---5---3---3---2---2-|
|---------3---3---1---1---0---0-|


 ------
 CHORUS
 ------


  Save me, save me, save me from this squeeze
|-----------------------------------------------|
|-----------------------------------------------|
|-7---7---7---7---7---7---7---7---7-------------|
|-7---7---7---7---7---7---7---7---7---5---5---5-|
|-5---5---5---5---5---5---5---5---5---5---5---5-|
|-------------------------------------3---3---3-|



  Ive got a big fat mama tring to break me
|---------------------------------------------------|
|---------------------------------------------------|
|-5---5---5---5---5---5---5---5---5-----------------|
|-5---5---5---5---5---5---5---5---5---3---3---7---7-|
|-5---5---5---3---3---3---3---3---3---3---3---7---7-|
|-3---3---3---------------------------1---1---5---5-|



  And i love to live so pleasently, live this life of luxury
|-------------------------------------------------------------------|
|-------------------------------------------------------------------|
|-7---7---7---7---7---7---------------7---7---7---7-----------5---5-|
|-7---7---7---7---7---7---5---5---5---7---7---7---7---5---5---5---5-|
|-5---5---5---5---5---5---5---5---5---5---5---5---5---5---5---3---3-|
|-------------------------3---3---3-------------------3---3---------|



   Lazin' on a sunny afternoon...
|-----------------------------------|
|-----------------------------------|
|-------------------------7---7---7-|
|-3---3---3---7---7---7---7---7---7-|
|-3---3---3---7---7---7---5---5---5-|
|-1---1---1---5---5---5-------------|




  In the summertime..
|-----------------------------------------|
|-----------------------------------------|
|-----------------------------------------| 
|-----------------------------------------|
|-5-5--3-3--2-2--1-1--0-0-----------------|
|--------------------------3-3--1-1--0-0--|


  In the summertime,  in the summertime..
|-----------------------------------------|
|-----------------------------------------|
|-7-7--5-5--4-4--3-3----------------------|
|-7-7--5-5--4-4--3-3--7-7--5-5--3-3--2-2--|
|-5-5--3-3--2-2--1-1--7-7--5-5--3-3--2-2--|
|---------------------5-5--3-3--1-1--0-0--|




  Repeat this entire tab for every verse and chorus - should be played 3 times for the full song
  - leave the intro out of coarse when you repeat it

   Best Regards to all dagleese
            
Submit corrections

comments powered by Disqus
↑ Back to top | Kinks Tabs for Sunny Afternoon. Lyrics for acoustic guitar and electric guitar. Tablatures and chords are parodies/interpretations of the original songs. You may use it for private study, scholarship, research or language learning purposes only