» » »

You Really Got Me Tabs (ver.1)

Artists:  A B C D E F G H I J K L M N O P Q R S T U V W X Y Z # 

You Really Got Me Tabs (ver.1)

Kinks
Rating:
0/5 (0 votes)

Hard to play? Try these video lessons and learn fast.
                this is one of the easiest tunes to play ever and it's also quite good

Main Riff 
E-------------------------------------
B-------------------------------------
G-------------------------------------
D--------3---55-3-5-------------------
A--------3---55-3-5-------------------
E--------1---33-1-3-------------------


Main Riff Altered
E------------------------------------
B------------------------------------
G--------2---44-2-4------------------
D--------3---55-3-5------------------
A--------3---55-3-5------------------
E--------1---33-1-3------------------

Play the main Riff throughout the song and play the Altered version at the end when it changes slightly

that's it

this tab was submitted by ABCthrashmetal
            
Hard to play? Try these video lessons and learn fast. | Correct




comments powered by Disqus
↑ Back to top | Tablatures and chords are parodies/interpretations of the original songs. You may use it for private study, scholarship, research or language learning purposes only