>
 >
Lola

Lola Bass Tabs

Kinks - Lola chords, tabs, tablatures, lyrics

Guitar lessons | Add/correct | Request | Top 50 tabs Artists:  A B C D E F G H I J K L M N O P Q R S T U V W X Y Z 0-9

Lola Bass Tabs – Kinks

CD, Sheet music, Poster

Do you like Lola? Share with your friends now
Bass TabsBass Tabs v2Bass Tabs v3ChordsChords v2Chords v3Chords v4Chords v5TabsTabs v2Ukulele
k/kinks/lola.btab

Basstab by Jan Bjorklund, Finland; 
You are welcome to request for basstabs!
Bienvenidos a pedirme transcripciones para el bajo!
Fingering and positions as suggested by TablEdit. 

TablEdited by Jan Bjorklund for René
Tuning : E A D G 	Time Signature: 4/4

This is the 9 th bar and the bass kicks in..
 |       |        |      |        |       |       |       
|----------------------------6-9-|------------------9/11----------|
|------------------------6-9-----|7-------------------------------|
|--------------------7-7---------|--------------------------------|
|--------------------------------|--------------------------------|

 |       |       |       |        |       |       |       |        
|9---------------5-5-5-5-5-5-----|--------------------------4-6-9-|
|----------------------------7-5-|------------------------6-------|
|--------------------------------|7---7-7-7-------7-7-7-7---------|
|--------------------------------|--------------------------------|

 |       |       |       |        |       |       |       |        
|--------------------------4-6/--|--------------4-----------4-6---|
|------------------------6-------|------------6-----------6-------|
|7---7-7-7-------7---7-7---------|7---7-7-7-------7---7-7---------|
|--------------7-----------------|--------------------------------|

 |       |       |       |        |       |       |       |        
|--------------------------------|--------------------------4-6-9-|
|7---7-7-7-------------7---------|--------------7---------6-------|
|------------9-7-5-5-5-----5---5-|7---7-7-7-------7-7-7-7---------|
|--------------------------------|--------------------------------|

 |       |       |       |        |       |       |       |        
|--------------------------------|----------------------------6-9-|
|7---7-7-7---7-7-7---7-7-------7-|------------------------6-9-----|
|--------------------------7-9---|7---7-7-7---7---7-7---7---------|
|------------------------9-------|--------------------------------|

 |       |       |       |        |       |       |       |        
|--------------------------------|--------------------------4-6---|
|7---7-7-7-------------7---------|------------------------6-------|
|------------9-7-5-5-------5-5-6-|7---7-7-7---7-7-7-7-7-7---------|
|--------------------------------|--------------------------------|

 |       |       |       |        |       |       |       |        
|--------------------------------|5---5-5---------5-5-5-5-5-5-7---|
|7-------7-------------7---------|--------5---7-------------------|
|------------9-7-5-5-5-----5-----|--------------------------------|
|----------------------------7-5-|--------------------------------|

 |       |       |       |        |       |       |       |        
|--------------------------4-6---|--------------------------4-6-7-|
|--------------9---------6-------|------------------------6-------|
|7---7-7-7-------7---7-7---------|7---7-7-7---7---7-7-7-7---------|
|--------------------------------|--------------7-----------------|

 |       |       |       |        |       |       |       |        
|4---4-4---------4-----4-4-------|--------------------------------|
|--------4---5-6---4-6-----4-----|4---4-4---------4-----4-----4-5-|
|--------------------------------|--------4---5-6---4-------4-----|
|--------------------------------|--------------------------------|

 |       |       |       |        |       |       |       |        
|--------------------------------|--------------------------------|
|7---7-7-----4-6-7-----7-------7-|7---7-7-----7---7-7-7-7-7-----7-|
|--------7---------7-9-----7-9---|--------7-----9-----------7-9---|
|--------------------------------|--------------------------------|

 |       |       |       |        |       |       |       |        
|------------------------------9-|--------------------------------|
|--------------------------9-11--|7---7-7-7-------------7---------|
|7-------7-------7-------11------|------------9-7-5-5-5-----5-5-6-|
|--------------------------------|--------------------------------|

 |       |       |       |        |       |       |       |        
|----------------------------6-9-|--------------------------------|
|------------------------6-9-----|7---7-7-7-------------7---------|
|7---7-7-7---7---7-7-7-7---------|------------9-7-5---5-----5---4-|
|--------------7-----------------|--------------------------------|

 |       |       |       |        |       |       |       |        
|5---5-5---------5-5-5-5-5-5-7---|----------------------------6-9-|
|--------5---7-------------------|--------------9---------6-9-----|
|--------------------------------|7---7-7-7---7---7-7-7-7---------|
|--------------------------------|--------------------------------|

 |       |       |       |        |       |       |       |        
|--------------------------------|5---5-----------5-5-5-5---5-7---|
|7---7-7-7---7---------7---------|--------5---7-------------------|
|--------------7-5---5-----5-5-5-|--------------------------------|
|--------------------------------|--------------------------------|

 |       |       |       |        |       |       |       |        
|----------------------------6---|----------------------------6-9-|
|------------------------6-9-----|------------------------6-9-----|
|7---7-7-7-7-----7-7-7-7---------|7---7-7-7-------7-7-7-7---------|
|--------------7-----------------|--------------7-----------------|

 |       |       |       |        |       |       |       |        
|--------------------------------|--------------------------------|
|7-------7---9---9---9-------6-9-|7-----------9---9-9-9-9-----6-9-|
|------7-----------------6-9-----|------7-7---------------6-9-----|
|--------------------------------|--------------------------------|

 |       |       |       |        |       |       |       |        
|--------------------------------|------------6---------------6---|
|7-----------9-----9-9-9-----6-9-|------6-----------------6-------|
|------7-7---------------6-9-----|7---7---------------------------|
|--------------------------------|--------------------------------|

 |       |       |       |        |       |       |       |        
|4---4---4-4-4---4-4-4---4-------|--------------------------------|
|------6-------6-------6---5/4-2-|--------------------------------|
|--------------------------------|7---7-7-7-------7-----7---------|
|--------------------------------|--------------------------------|

 |       |       |       |        |       |       |       |        
|--------------------------------|--------------------------4-6-9-|
|7-----7-7-----------------------|------------------------6-------|
|----------------5-----5---------|7---------------7---------------|
|--------------------------------|--------------------------------|

 |       |       |       |        |       |       |       |        
|--------------------------------|----------------------------6-9-|
|7---------------7---7-------4-7-|------------------------6-9-----|
|------------------------4-7-----|7---------------7---------------|
|--------------------------------|--------------------------------|

 |       |       |       |        |       |       |       |        
|--------------------------------|----------------------------6-9-|
|7-------------------------------|------------------------6-9-----|
|----------------5-5---5-5---5-7-|7-------------------7-7---------|
|--------------------------------|--------------------------------|

 |       |       |       |        |       |       |       |        
|--------------------------------|4---4-----------4-----4-----4---|
|7---------------7-7-7-7-7-----7-|--------4---5-6---4-6-----4---6-|
|--------------------------7-9---|--------------------------------|
|--------------------------------|--------------------------------|

 |       |       |       |        |       |       |       |        
|--------------------------------|--------------------------------|
|4---4---------4-4-----4-------6-|7---7---------7-7-----7-------6-|
|--------4-4-6-----4-6-----4-6---|--------7-7-9-----7-9-----7-9---|
|--------------------------------|--------------------------------|

 |       |       |       |        |       |       |       |        
|--------------------------------|----------------------------6-9-|
|7---7-----7-----7-7-7-7-----4-7-|------------------------6-9-----|
|--------7---9-7---------4-7-----|7---7---7-------7-----7---------|
|--------------------------------|--------------------------------|

 |       |       |       |        |       |       |       |        
|--------------------------------|------------------------4-6-9---|
|7-------7-------------7---------|----------------------4---------|
|------------9-7-5-5-5-----5-----|7---------------7---------------|
|--------------------------------|--------------------------------|

 |       |       |       |        |       |       |       |        
|--------------------------------|5---------------5-5-5-5---5-----|
|7-------7-------------7---------|--------5---7-------------------|
|------------9-7-5-5-5-----5---4-|----------------------------5---|
|--------------------------------|--------------------------------|

 |       |       |       |        |       |       |       |        
|--------------------------------|--------------------------------|
|--------------------------------|--------------------------------|
|7-------------------------------|--------------------------------|
|--------------------------------|--------------------------------|

 |       |       |       |        |       |       |       |        
|--------------------------------|----------------------------6-9-|
|----------------------------5/--|--------------9---------6-9-----|
|----------------3-3-3-3---3-----|7-------7-------7---------------|
|--------------------------------|--------------------------------|

 |       |       |       |        |       |       |       |        
|--------------------------------|5---5-5---------5-5-5-5---5-7/--|
|7-----7-7-------------7---------|--------5---7-------------------|
|------------9-7-5---5-----5---5-|--------------------------------|
|--------------------------------|--------------------------------|

 |       |       |       |        |       |       |       |        
|----------------------------6-9-|--------------------------------|
|--------------9---------6-9-----|7-----7-7-------------7---------|
|7---------------7---------------|------------9-7-5---5-----5-5-5-|
|--------------------------------|--------------------------------|

 |       |       |       |        |       |       |       |        
|5---------------5-5-5-5---5-----|----------------------------6-9-|
|--------5---7-7-------------5-7-|------------------------6-9-----|
|--------------------------------|7---7-7-7-7-----7---7-7---------|
|--------------------------------|--------------7-----------------|

 |       |       |       |        |       |       |       |        
|--------------------------------|5---5-5---------5-5-5-5---5-----|
|7-------7-------------7---------|--------5---7---------------5-7-|
|------------9-7-5-5-5-----5-5-4-|--------------------------------|
|--------------------------------|--------------------------------|

 |       |       |       |        |       |       |       |        
|----------------------------6-9-|--------------------------------|
|------------------------6-9-----|7-----7-7-------------7---------|
|7---7-7-7-------7---7-7---------|------------9-7-5---5-----5-5-4-|
|--------------7-----------------|--------------------------------|

 |       fading..............     |       |       |       |        
|5---5-5---------5-5-5-5---5-7---|----------------------------6-9-|
|--------5---7-7-----------------|------------------------6-9-----|
|--------------------------------|7---7-7-7-------7---7-7---------|
|--------------------------------|--------------7-----------------|





Comments


Popular Kinks tabs & chords
Dead End Street Bass Tabs
You Really Got Me Bass Tabs
Big Black Smoke Chords
End Of The Season Chords
Set Me Free 2 Chords
The Last Assembly Chords
Juke Box Music Tabs
Waterloo Sunset 3 Tabs
Waterloo Sunset 5 Tabs
Mindless Child Of Motherhood Ukulele


Song lyrics



↑ Back to top | Tablatures and chords are parodies/interpretations of the original songs. You may use it for private study, scholarship, research or language learning purposes only
© 2014 AZChords.com Contact us | Privacy policy | DMCA | Add/correct tabs | Request tabs | Top 50 tabs