» » »

Set Me Free Bass tabs (ver.1)

Artists:  A B C D E F G H I J K L M N O P Q R S T U V W X Y Z # 

Set Me Free Bass tabs (ver.1)

Kinks
Rating:
0/5 (0 votes)

Hard to play? Try these video lessons and learn fast.
                kinks/set_me_free.btab

Basstab by Jan Bjorklund, Finland; 
You are welcome to request for basstabs!
Bienvenidos a pedirme transcripciones para el bajo!


TablEdited by Jan Bjorklund
Tuning : E A D G 	Time Signature: 4/4

 |     tempo 120 |       |        |       |       |       |        
|--------------------------------|--------------------------------|
|-----------------------Intro without bass------------------------|
|--------------------------------|--------------------------------|
|--------------------------------|--------------------------------|

 |       |       |       |        |       |       |       |        
|--------------------------------|--------------------------------|
|------------------------5---5/--|7-------7---------------5---5/--|
|--------------------------------|--------------------------------|
|--------------------------------|--------------------------------|

 |       Set me...       |        |       |       |       |        
|--------------------------------|--------------------------------|
|7-------7-------------------5---|7-----------7-------------------|
|--------------------------------|--------------------------------|
|--------------------------------|--------------------------------|

 |       |       |       |        |       |       |       |        
|--------------------------------|--------------------------------|
|6-----------6-------------------|5-----------5-------------------|
|--------------------------------|--------------------------------|
|--------------------------------|--------------------------------|

 |       |   you know you|can...  |       |       |       |        
|--------------------------------|--------------------------------|
|--------------------------------|----------------2-----------2---|
|5-----------5---------------5/--|3-----------3-------------------|
|--------------------------------|--------------------------------|

 |       |       |       |        |       |       |       |        
|--------------------------------|--------------------------------|
|3-----------3---5-----------5---|7-----------7---------------5/--|
|--------------------------------|--------------------------------|
|--------------------------------|--------------------------------|

 |       |       |       |        |       |       |       |        
|--------------------------------|--------------------------------|
|7-----------7-------------------|7-----------7-------------------|
|--------------------------------|--------------------------------|
|--------------------------------|--------------------------------|

 |       |       |       |        |       |       |       |        
|--------------------------------|--------------------------------|
|6-----------6-------------------|5-----------5-------------------|
|--------------------------------|--------------------------------|
|--------------------------------|--------------------------------|

 |       |       |       |        |       |       |       |        
|--------------------------------|--------------------------------|
|--------------------------------|----------------2---------------|
|5-----------5---------------5---|3-----------3-------------------|
|--------------------------------|--------------------------------|

 |       |       |       |        |       |       |       |        
|--------------------------------|--------------------------------|
|3-----------3---5-----------5---|7-----------7---------------5---|
|--------------------------------|--------------------------------|
|--------------------------------|--------------------------------|

 |       |       |       |        |       |       |       |        
|--------------------------------|--------------------------------|
|5/7---------7-------------------|9-------------------------------|
|--------------------------------|--------------------------------|
|--------------------------------|--------------------------------|

 |       |       |       |        |       |       |       |        
|--------------------------------|--------------------------------|
|8-------------------------------|9-------------------------------|
|--------------------------------|--------------------------------|
|--------------------------------|--------------------------------|

 |       |       |       |        |       |       |       |        
|--------------------------------|--------------------------------|
|8---------------------------8---|9---------------------------9---|
|--------------------------------|--------------------------------|
|--------------------------------|--------------------------------|

 |       |       so if I can't have...    |       |       |        
|--------------------------------|--------------------------------|
|8---------------------------8---|--------------------------------|
|--------------------------------|8---------------8-------8-------|
|--------------------------------|--------------------------------|

 |       |       |       |        Set me...       |       |        
|--------------------------------|----------------7-------7-------|
|--------------------------------|7-------7-----------------------|
|--------------------------------|--------------------------------|
|8---8---8---8---8---8---8---8---|--------------------------------|

 |       |       |       |        |       |       |       |        
|----------------------------9---|----------------7-------7-------|
|--------------------------------|7-------7-----------------------|
|7---7---7---7---7---7---9-------|--------------------------------|
|--------------------------------|--------------------------------|

 |       Oh, set me free...       |       |       |       |        
|--------------------------------|--------------------------------|
|--------------------------------|7-----------7-------------------|
|7-------7-----------------------|--------------------------------|
|--------------------------------|--------------------------------|

 |       |       |       |        |       |       |       |        
|--------------------------------|--------------------------------|
|6-----------6-------------------|5-----------5-------------------|
|--------------------------------|--------------------------------|
|--------------------------------|--------------------------------|

 |       |       |       |        |       |       |       |        
|--------------------------------|--------------------------------|
|--------------------------------|--------------------------------|
|5-----------5-------------------|----------------7---------------|
|--------------------------------|8-----------8-------------------|

 |       |       |       |        |       |       |       |        
|--------------------------------|----------------------------12--|
|--------------------------------|--------------------------------|
|8-----------8---10----------10--|12----------12------------------|
|--------------------------------|--------------------------------|

 |       |       |       |        
|--------------------------------|--------------------------------|
|--------------------------------|--------and so on...------------|
|12----------12------------------|--------------------------------|
|--------------------------------|--------------------------------|
            
Hard to play? Try these video lessons and learn fast. | Correct




comments powered by Disqus
↑ Back to top | Tablatures and chords are parodies/interpretations of the original songs. You may use it for private study, scholarship, research or language learning purposes only