» » »

Kinks, Dead End Street Bass tabs (ver.1)

Artists:  A B C D E F G H I J K L M N O P Q R S T U V W X Y Z # 

Dead End Street Bass tabs (ver.1)

Kinks Tabs
 Rating:
4/5 (4 votes)
Dead End Street lessons Tabs too difficult? Try these video lessons and learn fast
                KINKS - Deadend street basstab

TablEdited by Jan Bjorklund   
You are welcome to request for tabs!
Fingering and positions as suggested by TablEdit, please use common sense.



Tuning : E A D G 	Time Signature: 4/4

 |       |       |       |        |       |       |       |        
|2-------2-------2-------2-------|2-------2-------2-------2-------|
|--------------------------------|--------------------------------|
|--------------------------------|--------------------------------|
|--------------------------------|--------------------------------|

 |       |       |       |        |       |       |       |        
|2-------2-------2-------2-------|2-------2-------2-------2-------|
|--------------------------------|--------------------------------|
|--------------------------------|--------------------------------|
|--------------------------------|--------------------------------|

 |       |       |       |        |       |       |       |        
|2-------2-------2-------2-------|0-------0-------0-------0-------|
|--------------------------------|--------------------------------|
|--------------------------------|--------------------------------|
|--------------------------------|--------------------------------|

 |       |       |       |        |       |       |       |        
|--------------------------------|----------------2-------2-------|
|0-------0-------0-------0-------|0-------0-----------------------|
|--------------------------------|--------------------------------|
|--------------------------------|--------------------------------|

 |       |       |       |        |       |       |       |        
|2-------2-------2-------2-------|0-------0-------0-------0-------|
|--------------------------------|--------------------------------|
|--------------------------------|--------------------------------|
|--------------------------------|--------------------------------|

 |       |       |       |        |       |       |       |        
|--------------------------------|----------------2-------2-------|
|0-------0-------0-------0-------|3-------3-----------------------|
|--------------------------------|--------------------------------|
|--------------------------------|--------------------------------|

 |       |       |       |        |       |       |       |        
|2-------2-------2-------2-------|2-------2-------0-------0-------|
|--------------------------------|--------------------------------|
|--------------------------------|--------------------------------|
|--------------------------------|--------------------------------|

 |       |       |       |        |       |       |       |        
|--------------------------------|--------------------------------|
|3-------3-------3-------3-------|----------------2---------------|
|--------------------------------|--------------------------------|
|--------------------------------|--------------------------------|

 |       |       |       |        |       |       |       |        
|2-------2-------2-------2-------|2-------2-------2-------0-------|
|--------------------------------|--------------------------------|
|--------------------------------|--------------------------------|
|--------------------------------|--------------------------------|

 |       |       |       |        |       |       |       |        
|--------------------------------|--------------------------------|
|3-------3-------3-------3-------|2-------2-------2-------2-------|
|--------------------------------|--------------------------------|
|--------------------------------|--------------------------------|

 |       |       |       |        |       |       |       |        
|2-------2-------2-------2-------|2-------2-------2-------2-------|
|--------------------------------|--------------------------------|
|--------------------------------|--------------------------------|
|--------------------------------|--------------------------------|

 |       |       |       |        |       |       |       |        
|--------------------------------|--------------------------------|
|0-------0-------0-------0-------|2-------2-------2-------2-------|
|--------------------------------|--------------------------------|
|--------------------------------|--------------------------------|

 |       |       |       |        |       |       |       |        
|2-------2-------2-------2-------|2-------2-------2-------2-------|
|--------------------------------|--------------------------------|
|--------------------------------|--------------------------------|
|--------------------------------|--------------------------------|

 |       |       |       |        |       |       |       |        
|2-------2-------2-------2-------|2-------2-------2-------2-------|
|--------------------------------|--------------------------------|
|--------------------------------|--------------------------------|
|--------------------------------|--------------------------------|

 |       |       |       |        |       |       |       |        
|2-------2-------2-------2-------|2-------2-------2-------2-------|
|--------------------------------|--------------------------------|
|--------------------------------|--------------------------------|
|--------------------------------|--------------------------------|

 |       |       |       |        |       |       |       |        
|5---5---------------------------|5---5---------------------------|
|----------------3-------3-------|----------------3-------3-------|
|--------------------------------|--------------------------------|
|--------------------------------|--------------------------------|

 |       |       |       |        |       |       |       |        
|2-------2-------2-------2-------|0-------0-------0-------0-------|
|--------------------------------|--------------------------------|
|--------------------------------|--------------------------------|
|--------------------------------|--------------------------------|

 |       |       |       |        |       |       |       |        
|----------------------2-------2-|----------------2-------2-------|
|0-------0-------0-------0-------|3-------3-----------------------|
|--------------------------------|--------------------------------|
|--------------------------------|--------------------------------|

 |       |       |       |        |       |       |       |        
|2-------2-------2-------2-------|0-------0-------0-------0-------|
|--------------------------------|--------------------------------|
|--------------------------------|--------------------------------|
|--------------------------------|--------------------------------|

 |       |       |       |        |       |       |       |        
|----------------2---------------|2-------2-------2-------2-------|
|0-------0---------------0-------|--------------------------------|
|--------------------------------|--------------------------------|
|--------------------------------|--------------------------------|

 |       |       |       |        |       |       |       |        
|2-------2-------2-------2-------|2-------2-------2-------0-------|
|--------------------------------|--------------------------------|
|--------------------------------|--------------------------------|
|--------------------------------|--------------------------------|

 |       |       |       |        |       |       |       |        
|--------------------------------|--------------------------------|
|3-------3-------3-------3-------|2-------2---------------2-------|
|--------------------------------|--------------------------------|
|--------------------------------|--------------------------------|

 |       |       |       |        |       |       |       |        
|2-------2-------2-------2-------|2-------2-------2-------0-------|
|--------------------------------|--------------------------------|
|--------------------------------|--------------------------------|
|--------------------------------|--------------------------------|

 |       |       |       |        |       |       |       |        
|--------------------------------|--------------------------------|
|3-------3-------3-------3-------|2-------2-------2-------2-------|
|--------------------------------|--------------------------------|
|--------------------------------|--------------------------------|

 |       |       |       |        |       |       |       |        
|2-------2-------2-------2-------|2-------2-------2-------2-------|
|--------------------------------|--------------------------------|
|--------------------------------|--------------------------------|
|--------------------------------|--------------------------------|

 |       |       |       |        |       |       |       |        
|--------------------------------|--------------------------------|
|0-------0-------0-------0-------|2-------2-------2-------2-------|
|--------------------------------|--------------------------------|
|--------------------------------|0-------------------------------|

 |       |       |       |        |       |       |       |        
|2-------2-------2-------2-------|2-------2-------2-------2-------|
|--------------------------------|--------------------------------|
|--------------------------------|--------------------------------|
|--------------------------------|--------------------------------|

 |       |       |       |        |       |       |       |        
|2-------2-------2-------2-------|2-------2-------2-------2-------|
|--------------------------------|--------------------------------|
|--------------------------------|--------------------------------|
|--------------------------------|--------------------------------|

 |       |       |       |        |       |       |       |        
|2-------2-------2-------2-------|2-------2-------2-------2-------|
|--------------------------------|--------------------------------|
|--------------------------------|--------------------------------|
|--------------------------------|--------------------------------|

 |       |       |       |        |       |       |       |        
|--------------------------------|--------------------------------|
|----------------3-------3-------|----------------3-------3-------|
|3-------3-----------------------|3-------3-----------------------|
|--------------------------------|8-------------------------------|

 |       |       |       |        |       |       |       |        
|2-------2-------2-------2-------|2-------2-------2-------2-------|
|--------------------------------|--------------------------------|
|--------------------------------|--------------------------------|
|--------------------------------|--------------------------------|

 |       |       |       |        |       |       |       |        
|2-------2-------2-------2-------|2-------2-------2-------2-------|
|--------------------------------|--------------------------------|
|--------------------------------|--------------------------------|
|--------------------------------|--------------------------------|

 |       |       |       |        |       |       |       |        
|2-------2-------2-------2-------|2-------2-------2-------2-------|
|--------------------------------|--------------------------------|
|--------------------------------|--------------------------------|
|--------------------------------|--------------------------------|

 |       |       |       |        |       |       |       |        
|2-------2-------2-------2-------|2-------2-------2-------2-------|
|--------------------------------|--------------------------------|
|--------------------------------|--------------------------------|
|--------------------------------|--------------------------------|

 |       |       |       |        |       |       |       |        
|2-------2-------2-------2-------|2-------2-------2-------2-------|
|--------------------------------|--------------------------------|
|--------------------------------|--------------------------------|
|--------------------------------|--------------------------------|

 |       |       |       |        |       |       |       |        
|2-------2-------2-------2-------|2-------2-------2-------2-------|
|--------------------------------|--------------------------------|
|--------------------------------|--------------------------------|
|--------------------------------|--------------------------------|

 |       |       |       |        |       |       |       |        
|--------------------------------|--------------------------------|
|--------------------------------|--------------------------------|
|3-------------------------------|3-------------------------------|
|------------1-------------------|------------1-------------------|

 |       |       |       |        |       |       |       |        
|--------------------------------|--------------------------------|
|--------------------------------|--------------------------------|
|3-------------------------------|--------------------------------|
|--------------------------------|--------------------------------|
            
Submit corrections

comments powered by Disqus
↑ Back to top | Kinks Bass for Dead End Street. Lyrics for acoustic guitar and electric guitar. Tablatures and chords are parodies/interpretations of the original songs. You may use it for private study, scholarship, research or language learning purposes only