» » »

Autumn Almanac Tabs (ver.1)

Artists:  A B C D E F G H I J K L M N O P Q R S T U V W X Y Z # 

Autumn Almanac Tabs (ver.1)

Kinks
Rating:
5/5 (6 votes)

Hard to play? Try these video lessons and learn fast.
                -------------------------------------------------------------------
 THE KINKS - AUTUMN ALMANAC (R./D.Davies) 
             Released as a single in the UK along with MR. PLEASANT 
             on October 13th 1967.
-------------------------------------------------------------------



When the dawn begins to crack. 
It's all part of my autumn almanac.

Breeze blows leaves of a musty-coloured yellow, 
So I sweep them in my sack.
Yes, yes, yes, it's my autumn almanac.

Friday evenings, people get together,
Hiding from the weather.

Tea and toasted, buttered currant buns
Can't compensate for lack of sun,
Because the summer's all gone. 

La-la-la-la... 
Oh, my poor rheumatic back 
Yes, yes, yes, it's my autumn almanac.
 
La-la-la-la... 
Oh, my autumn almanac 
Yes, yes, yes, it's my autumn almanac. 

I like my football on a Saturday, 
Roast beef on Sundays, all right. 
I go to Blackpool for my holidays, 
Sit in the open sunlight. 

This is my street, and I'm never gonna to leave it,
And I'm always gonna to stay here 
If I live to be ninety-nine, 

'Cause all the people I meet 
Seem to come from my street 
And I can't get away, 
Because it's calling me, (come on home) 
Hear it calling me, (come on home)

La-la-la-la... 
Oh, my autumn Armagnac 
Yes, yes, yes, it's my autumn almanac.
 
La-la-la-la... 
Oh, my autumn almanac 
Yes, yes, yes, yes, yes, yes, yes, yes. 

Bop-bop-bopm-bop-bop, whoa! 
Bop-bop-bopm-bop-bop, whoa! 


                              F#            B
e|------ ------ ------ ------|2---2- 2----- 2----- 2-----|
B|---------------------------|2---2--2------4------4-----|
G|---------------------------|3---3--3------4------4-----|
D|---------------------------|4---4--4------4------4-----|
A|---------------------------|4---4--4------2------2-----|
E|---------------------------|2---2--2-------------------|

e|------ ------ ------ ------|------ ------ ------ ------|
B|---------------------------|---------------------------|
G|---------------------------|---------------------------|
D|---------------------------|-----------6--9------9---8-|
A|---------------------------|----6--9-------------------|
E|---------------------------|9--------------------------|



  C#            F#                          B
e|4---4- 4----- 2----- 2-----|2---2- 2----- 2----- 2-----|
B|6---6--6------2------2-----|2---2--2------4------4-----|
G|6---6--6------3------3-----|3---3--3------4------4-----|
D|6---6--6------4------4-----|4---4--4------4------4-----|
A|4---4--4------4------4-----|4---4--4------2------2-----|
E|--------------2------2-----|2---2--2-------------------|

e|------ ------ ------ ------|------ ------ ------ ------|
B|---------------------------|---------------------------|
G|---------------------------|---------------------------|
D|6------6----6H8----6H8-----|-----------6--9------9---8-|
A|---------------------------|----6--9-------------------|
E|---------------------------|9--------------------------|



  C#            F#
e|4---4- 4----- 2----- 2-----|2----- 2-----|
B|6---6--6------2------2-----|2------2-----|
G|6---6--6------3------3-----|3------3-----|
D|6---6--6------4------4-----|4------4-----|
A|4---4--4------4------4-----|4------4-----|
E|--------------2------2-----|2------2-----|
                                     From the
e|------ ------ ------ ------|------ ------|
B|---------------------------|-------------|
G|---------------------------|-------------|
D|6------6------8------8-----|8---6--8-----|
A|----9----------------------|-------------|
E|---------------------------|-------------|



  Bm                          E
e|2----- ------ ------ ------|0----- 0----- ----0- 0-----|
B|3--------------------------|0------0----------0--0-----|
G|4--------------------------|1------1----------1--1-----|
D|4--------------------------|2------2----------2--2-----|
A|2--------------------------|2------2----------2--2-----|
E|---------------------------|0------0----------0--0-----|
  dew   soaked hedge  creeps a crawly caterpillar,


  A                        E
e|0----- 0----- 0----- 0---0-|0----- 0---0- 0---0- 0---0-|
B|2------2------2------2---0-|0------0---0--0---0--0---0-|
G|2------2------2------2---1-|1------1---1--1---1--1---1-|
D|2------2------2------2---2-|2------2---2--2---2--2---2-|
A|0------0------0------0---2-|2------2---2--2---2--2---2-|
E|-------------------------0-|0------0---0--0---0--0---0-|
                When      the dawn begins to crack.


  D                           A             E
e|2----- 2----- 2----- 2-----|0----- ------ 0----- ------|
B|3------3------3------3-----|2-------------0------------|
G|2------2------2------2-----|2-------------1------------|
D|0------0------0------0-----|2-------------2------------|
A|---------------------------|0-------------2------------|
E|---------------------------|--------------0------------|
  It's   all    part   of my  autumn almanac.


  Bm                          E
e|2----- ------ ------ ------|0----- 0----- 0---0- 0-----|
B|3--------------------------|0------0------0---0--0-----|
G|4--------------------------|1------1------1---1--1-----|
D|4--------------------------|2------2------2---2--2-----|
A|2--------------------------|2------2------2---2--2-----|
E|---------------------------|0------0------0---0--0-----|
  Breeze blows  leaves of  a  musty  coloured yellow,

 
  A                           E
e|0----- 0----- 0----- 0-----|0----- 0----- 0---0- 0---0-|
B|2------2------2------2-----|0------0------0-- 0--0---0-|
G|2------2------2------2-----|1------1------1---1--1---1-|
D|2------2------2------2-----|2------2------2---2--2---2-|
A|0------0------0------0-----|2------2------2---2--2---2-|
E|---------------------------|0------0------0---0--0---0-|
                So         I  sweep them in my sack.

  D                           A             E
e|2----- 2----- 2----- 2-----|0----- ------ 0----- ------|
B|3------3------3------3-----|2-------------0------------|
G|2------2------2------2-----|2-------------1------------|
D|0------0------0------0-----|2-------------2------------|
A|---------------------------|0-------------2------------|
E|---------------------------|--------------0------------|
  Yes,   yes,   yes,   it's my autumn almanac



  F# 
e|2----- 2----- 2----- 2-----|2----- 2----- 2-----|
B|2------2------2------2-----|2------2------2-----|
G|3------3------3------3-----|3------3------3-----|
D|4------4------4------4-----|4------4------4-----|
A|4------4------4------4-----|4------4------4-----|
E|2------2------2------2-----|2------2------2-----|
  Friday        evenings             Pe...........

 
  B             C#            F#
e|2----- 2----- 4----- 4-----|2----- 2----- 2---2- 2-----|
B|4------4------6------6-----|2------2------2---2--2-----|
G|4------4------6------6-----|3------3------3---3--3-----|
D|4------4------6------6-----|4------4------4---4--4-----|
A|2------2------4------4-----|4------4------4---4--4-----|
E|---------------------------|2------2------2---2--2-----|
  ..............ople  get together                 Hi....


  B             C#            F#
e|2----- 2----- 4----- 4-----|2----- 2----- 2----- 2-----|
B|4------4------6------6-----|2------2------2------2-----|
G|4------4------6------6-----|3------3------3------3-----|
D|4------4------6------6-----|4------4------4------4-----|
A|2------2------4------4-----|4------4------4------4-----|
E|---------------------------|2------2------2------2-----|
  ..............ding from the weather              


  Ebm                         Ebmmaj7
e|6----- 6----- 6----- 6-----|6----- 6----- 6----- 6-----|
B|7------7------7------7-----|7------7------7------7-----|
G|8------8------8------8-----|7------7------7------7-----|
D|8------8------8------8-----|8------8------8------8-----|
A|6------6------6------6-----|6------6------6------6-----|
E|---------------------------|---------------------------|
  Tea                  and    toasted, buttered currant buns


  Ebm7                        Ab7
e|6----- 6----- 6----- 6-----|4----- 4----- 4----- 4-----|
B|7------7------7------7-----|4------4------4------4-----|
G|6------6------6------6-----|5------5------5------5-----|
D|8------8------8------8-----|4------4------4------4-----|
A|6------6------6------6-----|6------6------6------6-----|
E|---------------------------|4------4------4------4-----|
                       can't  compensate for lack of   sun


  B                           Bb
e|2----- 2----- 2----- 2-----|1----- 1----- 1----- 1-----|
B|4------4------4------4-----|3------3------3------3-----|
G|4------4------4------4-----|3------3------3------3-----|
D|4------4------4------4-----|3------3------3------3-----|
A|2------2------2------2-----|1------1------1------1-----|
E|---------------------------|---------------------------|
                   because the summer's all gone   La   la


  Bm                       E
e|2----- 2----- 2----- 2---0-|0----- 0---0- 0----- 0-----|
B|3------3------3------3---0-|0------0---0--0------0-----|
G|4------4------4------4---1-|1------1---1--1------1-----|
D|4------4------4------4---2-|2------2---2--2------2-----|
A|2------2------2------2---2-|2------2---2--2------2-----|
E|-------------------------0-|0------0---0--0------0-----|
  la     la     la     la  la la  la la  la la  la
e|------ ------ ------ ------|------ ------ ------ ------|
B|---------------------------|---------------------------|
G|---------------------------|---------------------------|
D|---------------------------|---------------------------|
A|---------------------------|------------------4--4-5-6-|
E|---------------------------|---------------------------|



  A                        E
e|0----- 0----- 0---0- 0---0-|0----- 0---0- 0---0- 0-----|
B|2------2------2---2--2---0-|0------0---0--0-- 0--0-----|
G|2------2------2---2--2---1-|1------1---1--1---1--1-----|
D|2------2------2---2--2---2-|2------2---2--2---2--2-----|
A|0------0------0---0--0---2-|2------2---2--2---2--2-----|
E|-------------------------0-|0------0---0--0---0--0-----|
         Oh,               my poor rheumatic back
e|------ ------ ------ ------|------ ------ ------ ------|
B|---------------------------|---------------------------|
G|---------------------------|---------------------------|
D|---------------------------|---------------------------|
A|7--------------------------|---------------------------|
E|---------------------------|---------------------------|



  D                           A          E
e|2----- 2---2- 2----- 2-----|0----- ----0- 0----- ------|
B|3------3---3--3------3-----|2----------0--0------------|
G|2------2---2--2------2-----|2----------1--1------------|
D|0------0---0--0------0-----|2----------2--2------------|
A|---------------------------|0----------2--2------------|
E|---------------------------|-----------0--0------------|
  Yes,   yes,   yes,   it's my autumn almanac.


  Bm                          E
e|2----- 2---2- 2----- 2---2-|0----- 0----- 0---0- 0-----|
B|3------3---3--3------3---3-|0------0------0---0--0-----|
G|4------4---4--4------4---4-|1------1------1---1--1-----|
D|4------4---4--4------4---4-|2------2------2---2--2-----|
A|2------2---2--2------2---2-|2------2------2---2--2-----|
E|---------------------------|0------0------0---0--0-----|
  La     la     la     la  la la  la la  la la  la 
e|------ ------ ------ ------|------ ------ ------ ------|
B|---------------------------|---------------------------|
G|---------------------------|---------------------------|
D|---------------------------|---------------------------|
A|---------------------------|------------------4--4-5-6-|
E|---------------------------|---------------------------|

 

  A                           E
e|0----- 0----- 0----- 0-----|0----- 0---0- 0---0- 0---0-|
B|2------2------2------2-----|0------0---0--0-- 0--0---0-|
G|2------2------2------2-----|1------1---1--1---1--1---1-|
D|2------2------2------2-----|2------2---2--2---2--2---2-|
A|0------0------0------0-----|2------2---2--2---2--2---2-|
E|---------------------------|0------0---0--0---0--0---0-|
         Oh,               my autumn almanac 
e|------ ------ ------ ------|------ ------ ------ ------|
B|---------------------------|---------------------------|
G|---------------------------|---------------------------|
D|---------------------------|---------------------------|
A|7--------------------------|---------------------------|
E|---------------------------|---------------------------|



  D                           A             E
e|2----- 2----- 2----- 2-----|0----- ------ 0----- 0-----|
B|3------3------3------3-----|2-------------0------0-----|
G|2------2------2------2-----|2-------------1------1-----|
D|0------0------0------0-----|2-------------2------2-----|
A|---------------------------|0-------------2------2-----|
E|---------------------------|--------------0------0-----|
  Yes,   yes,   yes,   it's my autumn almanac. 

 


e|0----- 0----- 0----- 0-----|0----- 0-----|
B|0------0------0------0-----|0------0-----|
G|1------1------1------1-----|1------1-----|
D|2------2------2------2-----|2------2-----|
A|2------2------2------2-----|2------2-----|
E|0------0------0------0-----|0------0-----|



  A             Amaj7         D             A
e|------ ------ ------ ------|------ ------ ------ ------|
B|2------2------2------2-----|3------3------2------2-----|
G|2------2------2------2-----|2------2------2------2-----|
D|2------2------2------2-----|0------0------2------2-----|
A|0------0-------------------|--------------0------0-----|
E|--------------4------4-----|2------2-------------------|
  I      like my football            on a   Saturday, 


                Amaj7         D             A
e|------ ------ ------ ------|------ ------ ------ ------|
B|2------2------2------2-----|3------3------2------------|
G|2------2------2------2-----|2------2------2------------|
D|2------2------2------2-----|0------0------2------------|
A|0------0-------------------|--------------0------------|
E|--------------4------4-----|2------2-------------------|
  Roast  beef on Sundays,            all    right. 


  A             Amaj7         D             A
e|------ ------ ------ ------|------ ------ ------ ------|
B|2------2------2------2-----|3------3------2------2-----|
G|2------2------2------2-----|2------2------2------2-----|
D|2------2------2------2-----|0------0------2------2-----|
A|0------0-------------------|--------------0------0-----|
E|--------------4------4-----|2------2-------------------|
  I      go to  Blackpool            for my holidays, 
e|------ ------ ------ ------|------ ------ ------ ------|
B|---------------------------|---------------------------|
G|6--------------------9-----|---------------------------|
D|-----------7--9------------|---------------------------|
A|---------------------------|---------------------------|
E|---------------------------|---------------------------|



                Amaj7         D             A
e|------ ------ ------ ------|------ ------ ------ ------|
B|2------2------2------2-----|3------3------2------------|
G|2------2------2------2-----|2------2------2------------|
D|2------2------2------2-----|0------0------2------------|
A|0------0-------------------|--------------0------------|
E|--------------4------4-----|2------2-------------------|
  Sit    in the open                 sunlight. 

e|------ ------ ------ ------|------ ------ ------ ------|
B|---------------------------|---------------------------|
G|6------6-------------9-----|---------------------------|
D|-----------7--9------------|---------------------------|
A|---------------------------|---------------------------|
E|---------------------------|---------------------------|



  Am                          Am7 
e|0----- ------ ------ ------|0----- ------ ------ ------|
B|1--------------------------|1--------------------------|
G|2--------------------------|2--------------------------|
D|2--------------------------|2--------------------------|
A|0------------------------0-|---------------------------|
E|---------------------------|3--------------------------|
  This   is     my     street,       and I'm never gonna 


  F                           G             G7
e|1----- ------ ------ ------|3----- ------ 3----- ------|
B|1--------------------------|3-------------3------------|
G|2--------------------------|4-------------4------------|
D|3--------------------------|5-------------3------------|
A|3--------------------------|5-------------5------------|
E|1------------------------1-|3-------------3------------|
  leave  it,                         And I'm always gonna


  C                           Cmaj7
e|3----- ------ ------ ------|3----- ------ ------ ------|
B|5--------------------------|5--------------------------|
G|5--------------------------|4--------------------------|
D|5--------------------------|5--------------------------|
A|3------------------------3-|3--------------------------|
E|---------------------------|---------------------------|
  stay                               If  I  live to be


  C7                          A             A7
e|3----- ------ ------ ------|------ ------ ------ ------|
B|5--------------------------|2------2------2------2-----|
G|3--------------------------|2------2------2------2-----|
D|5--------------------------|2------2------2------2-----|
A|3------------------------3-|0--------------------------|
E|---------------------------|--------------3------------|
  ni................nety   nine 'Cause all the people I meet 


  D                           Dm
e|------ ------ ------ ------|------ ------ ------ ------|
B|3------3------3------3-----|3------3------3------3-----|
G|2------2------2------2-----|2------2------2------2-----|
D|0------0------0------0-----|0------0------0------0-----|
A|---------------------------|---------------------------|
E|2------------------------2-|1--------------------------|
                                     Seem to come from my  


  A                           F#  
e|------ ------ ------ ------|------ ------ ------ ------|
B|2------2------2------2-----|2------2------2------2-----|
G|2------2------2------2-----|3------3------3------3-----|
D|2------2------2------2-----|4------4------4------4-----|
A|---------------------------|4------4------4------4-----|
E|0------0------0------0-----|---------------------------|
  street                             And I  can't get away, 

                                  
  B7                          C#
e|------ ------ ------ ------|------ ------ ------ ------|
B|4------4------4------4-----|6------6------6------6-----|
G|4------4------4------4-----|6------6------6------6-----|
D|4------4------4------4-----|6------6------6------6-----|
A|0------0------0------0-----|---------------------------|
E|---------------------------|4------4------4------4-----|
                                 Because it's calling me, 


  F#m                         C#
e|2----- 2----- 2----- 2-----|1----- 1----- 1----- 1-----|
B|2------2------2------2-----|2------2------2------2-----|
G|2------2------2------2-----|1------1------1------1-----|
D|4------4------4------4-----|3------3------3------3-----|
A|4------4------4------4-----|4------4------4------4-----|
E|2------2------2------2-----|1------1------1------1-----|
Hear  it  calling me
 (Come          on            home)
 
  A                           B9
e|------ ------ ------ ------|------ ------ ------ ------|
B|2------2------2------2-----|2------2------2------2-----|
G|2------2------2------2-----|2------2------2------2-----|
D|2------2------2------2-----|1------1------1------1-----|
A|---------------------------|2------2------2------2-----|
E|0------0------0------0-----|---------------------------|
                                                   La  la
 (Come          on            home)

         Bm                   E
e|------ 2----- ------ 2-----|0----- 0---0- 0----- 0-----|
B|-------3-------------3-----|0------0---0--0------0-----|
G|-------4-------------4-----|1------1---1--1------1-----|
D|-------4-------------4-----|2------2---2--2------2-----|
A|-------2-------------2-----|2------2---2--2------2-----|
E|---------------------------|0------0---0--0------0-----|
  la     la     la     la  la la  la la  la la  la
e|------ ------ ------ ------|------ ------ ------ ------|
B|---------------------------|---------------------------|
G|---------------------------|---------------------------|
D|---------------------------|---------------------------|
A|---------------------------|------------------4--4-5-6-|
E|---------------------------|---------------------------|
                    


  A                           E
e|0----- 0---0- 0----- 0-----|0----- 0----- 0---0- 0---0-|
B|2------2---2--2------2-----|0------0------0-- 0--0---0-|
G|2------2---2--2------2-----|1------1------1---1--1---1-|
D|2------2---2--2------2-----|2------2------2---2--2---2-|
A|0------0---0--0------0-----|2------2------2---2--2---2-|
E|--------------0------0-----|0------0------0---0--0---0-|
         Oh,               my autumn Armagnac 
e|------ ------ ------ ------|------ ------ ------ ------|
B|---------------------------|---------------------------|
G|---------------------------|---------------------------|
D|---------------------------|---------------------------|
A|7--------------------------|---------------------------|
E|---------------------------|---------------------------|


  D                           A             E
e|2----- 2----- 2----- 2-----|0----- 0---0- 0----- 0-----|
B|3------3------3------3-----|2------2---2--0------0-----|
G|2------2------2------2-----|2------2---2--1------1-----|
D|0------0------0------0-----|2------2---2--2------2-----|
A|---------------------------|0------0---0--2------2-----|
E|---------------------------|--------------0------0-----|
  Yes,   yes,   yes,   it's my autumn almanac.
 

  Bm                          E
e|2----- 2----- 2----- 2-----|0----- 0---0- 0----- 0-----|
B|3------3------3------3-----|0------0---0--0------0-----|
G|4------4------4------4-----|1------1---1--1------1-----|
D|4------4------4------4-----|2------2---2--2------2-----|
A|2------2------2------2-----|2------2---2--2------2-----|
E|---------------------------|0------0---0--0------0-----|
  La     la     la     la  la la  la la  la la  la
e|------ ------ ------ ------|------ ------ ------ ------|
B|---------------------------|---------------------------|
G|---------------------------|---------------------------|
D|---------------------------|---------------------------|
A|---------------------------|------------------4--4-5-6-|
E|---------------------------|---------------------------|



  A                           E
e|0----- 0----- 0----- 0-----|0----- 0----- 0---0- 0-----|
B|2------2------2------2-----|0------0------0-- 0--0-----|
G|2------2------2------2-----|1------1------1---1--1-----|
D|2------2------2------2-----|2------2------2---2--2-----|
A|0------0------0------0-----|2------2------2---2--2-----|
E|---------------------------|0------0------0---0--0-----|
         Oh,               my autumn almanac 
e|------ ------ ------ ------|------ ------ ------ ------|
B|---------------------------|---------------------------|
G|---------------------------|---------------------------|
D|---------------------------|---------------------------|
A|7--------------------------|---------------------------|
E|---------------------------|---------------------------|



  D      D-5    D                    D6     Dmaj7
e|2----- 2----- 2----- 2-----|2----- 2----- 2----- ------|
B|3------3------3------3-----|3------3------2------------|
G|2------1------2------4-----|2------4------2------------|
D|4------0------0------0-----|0------0------0------------|
A|---------------------------|---------------------------|
E|---------------------------|---------------------------|
  Yes,   yes,   yes,   yes,   yes,   yes,   yes,   yes. 

                       E      A      
  D             E   Esus2  Esus2            D
e|5----- 5----- 7---7- 7---7-|5----- 5----- 5----- 5-----|
B|7------7------9---7--9---7-|5------5------7------7-----|
G|7------7------9---9--9---9-|6------6------7------7-----|
D|7------7------9---9--9---9-|7------7------7------7-----|
A|5------5------7---7--7---7-|7------7------5------5-----|
E|---------------------------|5------5-------------------|
                                             Bop    bop 

         E      A                                  E  
  E   Esus2  Esus2            D             E   Esus2  Esus2
e|7---7- 7---7- 5----- 5-----|5----- 5----- 7---7- 7---7-|
B|9---7--9---7--5------5-----|7------7------9---7--9---7-|
G|9---9--9---9--6------6-----|7------7------9---9--9---9-|
D|9---9--9---9--7------7-----|7------7------9---9--9---9-|
A|7---7--7---7--7------7-----|5------5------7---7--7---7-|
E|--------------5------5-----|---------------------------|
  bopm   bop    bop, whoa!    Bop    bop     bopm   bop     
e|------ ------ ------ ------|------ ------ ------ ------|
B|---------------------------|---------------------------|
G|---------------------------|---------------------------|
D|---------------------------|---------------------------|
A|---------------------------|5-------------7------------|
E|---------------------------|---------------------------|


                                     E      A
  A             D             E   Esus2  Esus2
e|5----- 5----- 5----- 5-----|7---7- 7---7- 5----- 5-----|
B|5------5------7------7-----|9---7--9---7--5------5-----|
G|6------6------7------7-----|9---9--9---9--6------6-----|
D|7------7------7------7-----|9---9--9---9--7------7-----|
A|7------7------5------5-----|7---7--7---7--7------7-----|
E|5------5-------------------|--------------5------5-----|
  bop, whoa!    Bop    bop     bopm   bop   bop, whoa!
e|------ ------ ------ ------|------ ------ ------ ------|
B|---------------------------|---------------------------|
G|---------------------------|---------------------------|
D|---------------------------|---------------------------|
A|--------------5------------|7--------------------------|
E|5--------------------------|--------------5------------|


                       E      A   
  D             E   Esus2  Esus2            D
e|5----- 5----- 7---7- 7---7-|5----- 5----- 5----- 5-----|
B|7------7------9---7--9---7-|5------5------7------7-----|
G|7------7------9---9--9---9-|6------6------7------7-----|
D|7------7------9---9--9---9-|7------7------7------7-----|
A|5------5------7---7--7---7-|7------7------5------5-----|
E|---------------------------|5------5-------------------|
                                            Yes
  Bop    bop    bopm   bop    bop, whoa!    Bop    bop     
e|------ ------ ------ ------|------ ------ ------ ------|
B|---------------------------|---------------------------|
G|---------------------------|---------------------------|
D|---------------------------|---------------------------|
A|5-------------7------------|--------------5------------|
E|---------------------------|5--------------------------|


         E      A                                  E
  E   Esus2  Esus2            D             E   Esus2  Esus2
e|7---7- 7---7- 5----- 5-----|5----- 5----- 7---7- 7---7-|
B|9---7--9---7--5------5-----|7------7------9---7--9---7-|
G|9---9--9---9--6------6-----|7------7------9---9--9---9-|
D|9---9--9---9--7------7-----|7------7------9---9--9---9-|
A|7---7--7---7--7------7-----|5------5------7---7--7---7-|
E|--------------5------5-----|---------------------------|
                              Yes
  bopm   bop   bop, whoa!     Bop    bop    bopm   bop
e|------ ------ ------ ------|------ ------ ------ ------|
B|---------------------------|---------------------------|
G|---------------------------|---------------------------|
D|---------------------------|---------------------------|
A|7--------------------------|5-------------7------------|
E|--------------5------------|---------------------------|


                                     E      A
  A             DD            E   Esus2  Esus2
e|5----- 5----- 5----- 5-----|7---7- 7---7- 5----- 5-----|
B|5------5------7------7-----|9---7--9---7--5------5-----|
G|6------6------7------7-----|9---9--9---9--6------6-----|
D|7------7------7------7-----|9---9--9---9--7------7-----|
A|7------7------5------5-----|7---7--7---7--7------7-----|
E|5------5-------------------|--------------5------5-----|
                Yes
  bop, whoa!    Bop    bop     bopm   bop   bop, whoa!
e|------ ------ ------ ------|------ ------ ------ ------|
B|---------------------------|---------------------------|
G|---------------------------|---------------------------|
D|---------------------------|---------------------------|
A|--------------5------------|7--------------------------|
E|5--------------------------|--------------5------------|
  .........................Fade..........................

                       E      A
  D             E   Esus2  Esus2            D
e|5----- 5----- 7---7- 7---7-|5----- 5----- 5----- 5-----|
B|7------7------9---7--9---7-|5------5------7------7-----|
G|7------7------9---9--9---9-|6------6------7------7-----|
D|7------7------9---9--9---9-|7------7------7------7-----|
A|5------5------7---7--7---7-|7------7------5------5-----|
E|---------------------------|5------5-------------------|

e|------ ------ ------ ------|------ ------ ------ ------|
B|---------------------------|---------------------------|
G|---------------------------|---------------------------|
D|---------------------------|---------------------------|
A|5-------------7------------|--------------5------------|
E|---------------------------|5--------------------------|
  .......................................................


        B  Bend
        R  Release
        /  slide up
        \  slide down
        H  hammer-on
        P  pull-off
        ~  vibrato
        +  harmonic
        x  Mute note
        . - play note like a dot in standard notation
        ^ - ties two notes together
        (.  pause
            
Hard to play? Try these video lessons and learn fast. | Correct




comments powered by Disqus
↑ Back to top | Tablatures and chords are parodies/interpretations of the original songs. You may use it for private study, scholarship, research or language learning purposes only