» » »

All Day And All Of The Night Bass tabs (ver.2)

Artists:  A B C D E F G H I J K L M N O P Q R S T U V W X Y Z # 

All Day And All Of The Night Bass tabs (ver.2)

Kinks
Rating:
5/5 (1 vote)

Tabs too difficult? Try these video lessons and learn fast.
                All Day And All Of The Night
The Kinks
Written by Ray Davies; released as a single with "I Gotta Move" as the B-side

Intro:
G|------- ------- ------- -------|------- ------- ------- -------|
D|-------------------------------|----------------------------3--|
A|-------------------------------|-------------------------------|
E|-------------------------------|-------------------------------|



G|------- ------- ------- -------|3---3-- 3------ ------- -------|
D|5-----------5---3-----------3--|------------5-----5-5---5---3--|
A|-------------------------------|-------------------------------|
E|-------------------------------|-------------------------------|
                                                              I'm

Verse:
G|------- ------- ------- -------|3---3-- 3------ ------- -------|
D|5-----------5---3-----------3--|------------5-------5---5---3--|
A|-------------------------------|-------------------------------|
E|-------------------------------|-------------------------------|
  not         content         to  be  with    you     in  the day-


G|------- ------- ------- -------|3---3-- 3------ ------- -------|
D|5-----------5---3-----------3--|------------5-------5---5---3--|
A|-------------------------------|-------------------------------|
E|-------------------------------|-------------------------------|
      time.


G|------- ------- ------- -------|3---3-- 3------ ------- -------|
D|5-----------5---3-----------3--|------------5-------3---5---3--|
A|-------------------------------|-------------------------------|
E|-------------------------------|-------------------------------|
  Girl,       I   want        to  be  with    you     all of  the


G|------- ------- ------- -------|3---3-- 3------ ------- -------|
D|5-----------5---3-----------3--|------------5---------------5--|
A|-------------------------------|-------------------------------|
E|-------------------------------|-------------------------------|
      time.                                                   The


G|3------ ----3-- 3------ -------|------- ------- ------- -------|
D|-------------------------------|3-----------3---3-----------5--|
A|-------------------------------|-------------------------------|
E|-------------------------------|-------------------------------|
  on  -   ly      time    I       feel all    right   is  by  your
  aaaaaaaaaaaaaaaaaaaaaaaaaaaaaaaaaaaaaaaaaaaaaaaaaaaaaaaaaaaaaaa

G|------- ------- ------- -------|5---5-- 5------ ------- -------|
D|7-----------7---5-----------5--|------------7-------5---7---5--|
A|-------------------------------|-------------------------------|
E|-------------------------------|-------------------------------|
      side.
  aaaaaaaaaaaaaaaaaaaaaaaaaaaaaaaaaaaaaaaaaaaaaaaaaaaaaaa
Refrain:
G|------- ------- ------- -------|------- ------- ------- -------|
D|-------------------------------|3---3---3----------------------|
A|5-----------5---3-----------3--|------------5-------3-------3--|
E|-------------------------------|------------------------5------|
  Girl,       I   want        to  be  with    you     all of the
  aaaaaaaaaaaaaaaaaaaaaaaaaaaaaaaaaaaaaaaaaaaaaaaaaaaaaaaaaaaaaaa

G|------- ------- ------- -------|------- ------- ------- -------|
D|-------------------------------|3---3---3----------------------|
A|5-----------5---3-----------3--|------------5-------3-------3--|
E|-------------------------------|------------------------5------|
      time,   all day,        and all of  the night,
  aaaaaaaa

G|------- ------- ------- -------|------- ------- ------- -------|
D|-------------------------------|3---3---3----------------------|
A|5-----------5---3-----------3--|------------5-------3-------3--|
E|-------------------------------|------------------------5------|
              All day,        and all of  the night,


G|------- ------- ------- -------|------- ------- ------- -------|
D|-------------------------------|3---3---3-------------------3--|
A|5-----------5---3-----------3--|------------5-------3----------|
E|-------------------------------|------------------------5------|
              all day,        and all of  the night.

Verse:
G|------- ------- ------- -------|3---3-- 3------ ------- -------|
D|5-----------5---3-----------3--|------------5---------------3--|
A|-------------------------------|-------------------------------|
E|-------------------------------|-------------------------------|
  I           be- lieve      that you and     me      last    for-


G|------- ------- ------- -------|3---3-- 3------ ------- -------|
D|5-----------5---3-----------3--|------------5---------------3--|
A|-------------------------------|-------------------------------|
E|-------------------------------|-------------------------------|
  e - ver.                                                    Oh,


G|------- ------- ------- -------|3---3-- 3------ ------- -------|
D|5-----------5---3-----------3--|------------5---------------3--|
A|-------------------------------|-------------------------------|
E|-------------------------------|-------------------------------|
  yeah,       all day         and night I'm   yours,  leave   me


G|------- ------- ------- -------|3---3-- 3------ ------- -------|
D|5-----------5---3-----------3--|------------5---------------5--|
A|-------------------------------|-------------------------------|
E|-------------------------------|-------------------------------|
  never.                                                      The


G|3------ ----3-- 3------ -------|------- ------- ------- -------|
D|----------------------------2--|3-----------3---3--------------|
A|-------------------------------|-------------------------------|
E|-------------------------------|-------------------------------|
  on  -   ly  time        I       feel all    right   is  by  your
  aaaaaaaaaaaaaaaaaaaaaaaaaaaaaaaaaaaaaaaaaaaaaaaaaaaaaaaaaaaaaaa

G|------- ------- ------- -------|5---5-- 5------ ------- -------|
D|7-----------7---5-----------5--|------------7-------5----------|
A|-------------------------------|------------------------8---7--|
E|-------------------------------|-------------------------------|
      side.
  aaaaaaaaaaaaaaaaaaaaaaaaaaaaaaaaaaaaaaaaaaaaaaaaaaaaaaa
Refrain:
G|------- ------- ------- -------|------- ------- ------- -------|
D|-------------------------------|3---3---3----------------------|
A|5-----------5---3-----------3--|------------5-------5-------3--|
E|-------------------------------|------------------------5------|
  Girl,       I   want        to  be  with    you     all of the
  aaaaaaaaaaaaaaaaaaaaaaaaaaaaaaaaaaaaaaaaaaaaaaaaaaaaaaaaaaaaaaa

G|------- ------- ------- -------|------- ------- ------- -------|
D|-------------------------------|3---3---3----------------------|
A|5-----------5---3-----------3--|------------5-------3-------3--|
E|-------------------------------|------------------------5------|
      time,   all day,        and all of  the night,
  aaaaaaaa

G|------- ------- ------- -------|------- ------- ------- -------|
D|-------------------------------|3---3---3----------------------|
A|5-----------5---3-----------3--|------------5-------3-------3--|
E|-------------------------------|------------------------5------|
              All day,        and all of  the night,


G|------- ------- ------- -------|------- ------- ------- -------|
D|-------------------------------|3------------------------------|
A|5-----------5---3-----------3--|-------------------------------|
E|-------------------------------|-------------------------------|



G|------- ------- ------- -------|------- ------- ------- -------|
D|-------------------------------|-------------------------------|
A|-------------------------------|5------------------------------|
E|-------------------------------|-------------------------------|
                                              Oh,         come on!


G|------- ------- ------- -------|
D|-------------------------------|
A|-------------------------------|
E|-------------------------------|


Break (solo):
G|------- ------- ------- -------|3---3-- 3------ ------- -------|
D|5-----------5---3-----------3--|------------5-------5---5---5--|
A|-------------------------------|-------------------------------|
E|-------------------------------|-------------------------------|



G|------- ------- ------- -------|3---3-- 3------ ------- -------|
D|5-----------5---3-----------3--|------------5-------5---5---5--|
A|-------------------------------|-------------------------------|
E|-------------------------------|-------------------------------|



G|------- ------- ------- -------|3---3-- 3------ ------- -------|
D|5-----------5---3-----------3--|------------5-------5---5---5--|
A|-------------------------------|-------------------------------|
E|-------------------------------|-------------------------------|



G|------- ------- ------- -------|3---3-- 3------ ------- -------|
D|5-----------5---3-----------3--|------------5-----5-5---5---5--|
A|-------------------------------|-------------------------------|
E|-------------------------------|-------------------------------|



G|------- ------- ------- -------|3---3-- 3------ ------- -------|
D|5-----------5---3-----------3--|------------5------------------|
A|-------------------------------|-------------------------------|
E|-------------------------------|-------------------------------|


Verse:
G|------- ------- ------- -------|3---3-- ------- ------- -------|
D|5-----------5---3-----------3--|------------5---------------3--|
A|-------------------------------|-------------------------------|
E|-------------------------------|-------------------------------|
  I           be- lieve      that you and     me      last    for-


G|------- ------- ------- -------|3---3-- ------- ------- -------|
D|5-----------5---3-----------3--|------------5------------------|
A|-------------------------------|-------------------------------|
E|-------------------------------|-------------------------------|
  e - ver.                                                    Oh,


G|------- ------- ------- -------|3---3-- ------- ------- -------|
D|5-----------5---3-----------3--|------------5---------------3--|
A|-------------------------------|-------------------------------|
E|-------------------------------|-------------------------------|
  yeah,       all day         and night I'm   yours,  leave   me


G|------- ------- ------- -------|3---3-- ------- ------- -------|
D|5-----------5---3-----------3--|------------5------------------|
A|-------------------------------|-------------------------------|
E|-------------------------------|-------------------------------|
  never.                                                      The


G|3------ ----3-- 3------ -------|------- ------- ------- -------|
D|----------------------------2--|3-----------3---3-----------5--|
A|-------------------------------|-------------------------------|
E|-------------------------------|-------------------------------|
  on  -   ly  time        I       feel all    right   is  by  your
  aaaaaaaaaaaaaaaaaaaaaaaaaaaaaaaaaaaaaaaaaaaaaaaaaaaaaaaaaaaaaaa

G|------- ------- ------- -------|5---5-- ------- ------- -------|
D|7-----------7---5-----------5--|------------7------------------|
A|-------------------------------|--------------------7---5---7--|
E|-------------------------------|-------------------------------|
      side.
  aaaaaaaaaaaaaaaaaaaaaaaaaaaaaaaaaaaaaaaaaaaaaaaaaaaaaaa
Refrain:
G|------- ------- ------- -------|------- ------- ------- -------|
D|-------------------------------|3---3---3----------------------|
A|5-----------5---3-----------3--|------------5-------5-------3--|
E|-------------------------------|------------------------5------|
  Girl,       I   want        to  be  with    you     all of the
  aaaaaaaaaaaaaaaaaaaaaaaaaaaaaaaaaaaaaaaaaaaaaaaaaaaaaaaaaaaaaaa

G|------- ------- ------- -------|------- ------- ------- -------|
D|-------------------------------|3---3---3----------------------|
A|5-----------5---3-----------3--|------------5-------3-------3--|
E|-------------------------------|------------------------5------|
      time,   all day,        and all of  the night,
  aaaaaaaa

G|------- ------- ------- -------|------- ------- ------- -------|
D|-------------------------------|3---3---3----------------------|
A|5-----------5---3-----------3--|------------5-------3-------3--|
E|-------------------------------|------------------------5------|
              All day,        and all of  the night,


G|------- ------- ------- -------|------- ------- ------- -------|
D|-------------------------------|3---3---3----------------------|
A|5-----------5---3-----------3--|------------5-------3-------3--|
E|-------------------------------|------------------------5------|
              all day,        and all of  the night.

Outro:
G|------- ------- ------- -------|------- ------- ------- -------|
D|-------------------------------|3------------------------------|
A|5---------------3--------------|------------5------------------|
E|-------------------------------|-------------------------------|

Please e-mail me for any corrections, or write a comment.
            
Tabs too difficult? Try these video lessons and learn fast.


comments powered by Disqus
↑ Back to top | Tablatures and chords are parodies/interpretations of the original songs. You may use it for private study, scholarship, research or language learning purposes only