» » »

Cayman Islands Tabs (ver.2)

Artists:  A B C D E F G H I J K L M N O P Q R S T U V W X Y Z # 

Cayman Islands Tabs (ver.2)

Kings Of Convenience
Rating:
5/5 (5 votes)

Hard to play? Try these video lessons and learn fast.
                
This is one of my favorite Kings of Convenience songs. I noticed that the other tabs
out some parts of this song, so I went ahead and tabbed out the full song. If you notice
mistakes, please post a correction. I've included the order of the parts further down. 
this helps (=

***CAP0 1st Fret***

(All notes relative to capo)

(Part 1)

e|-0-----------0-----------0--------------------------------------------|
B|----------3-----------3-----------3-----1--------0--------------------|
G|-------2-----------2-----------2--------------------------------------|
D|----3-----------3-----------3-----------------2-----------------------|
A|-------------------------------------------3--------------------------|
E|-1-----------1-----------3-----------3--------------------------------|

(Part 2)

e|----------------------------------------------------------------------|
B|-0--------0--0--------0--0--------0-----1--------3--------------------|
G|-------0-----------0-----------0--------------0-----------------------|
D|----2-----------2-----------2--------------2--------------------------|
A|-3-----------3-----------0-----------0--------------------------------|
E|----------------------------------------------------------------------|

(Part 3)

e|----------------------------------------------------------------------|
B|-3--------3--3--------3--3--------3-----0--------0--------------------|
G|-------2-----------2-----------2--------------0-----------------------|
D|----3-----------3-----------3--------------2--------------------------|
A|----------------------------------------------------------------------|
E|-1-----------1-----------3-----------3--------------------------------|

(Part 4)

e|-0-----------0-----------0-----------0--------------------------------|
B|----------3-----------3-----------3-----------3-----------------------|
G|-------2-----------2-----------2-----------2--------------------------|
D|----4-----------4-----------4-----------4-----------------------------|
A|----------------------------------------------------------------------|
E|-2-----------2-----------2-----------2--------------------------------|

(Part 5)

e|-0-----------0-----------0-----------0-----------0-----------0---------|
B|----------3-----------3-----------3-----------3-----------3----------3-|
G|-------2-----------2-----------2-----------2-----------2-----------2---|
D|----2-----------2-----------2-----------2-----------2-----------2------|
A|-----------------------------------------------------------------------|
E|-1-----------1-----------0-----------0-----------0-----------0---------|

(Part 6)

e|-8-----------8-----------8-----------8--------------------------------|
B|----------0-----------0-----------0-----------0-----------------------|
G|-------0-----------0-----------0-----------0--------------------------|
D|----7-----------7-----------7-----------7-----------------------------|
A|----------------------------------------------------------------------|
E|-0-----------0-----------0-----------0--------------------------------|

(Part 7)

e|-0-----------0-----------0-----------0--------------------------------|
B|----------0-----------0-----------0-----------0-----------------------|
G|-------5-----------5-----------5-----------5--------------------------|
D|----7-----------7-----------7-----------7-----------------------------|
A|----------------------------------------------------------------------|
E|-0-----------0-----------0-----------0--------------------------------|

Song Order / Lyrics:

Part 1
Part 2
Part 1 (Through the alley ways, to cool off in the shadows)
Part 2 (Then into the street, following the water)
Part 1 (There's a bearded man, paddling in his canoe)
Part 2 (Looks as if he has, come all the way from the Cayman Islands)
Part 1
Part 2
Part 1 (These can*ls it seems, they all go in circles)
Part 2 (Places look the same, and we're the only difference)
Part 1 (The wind is in your hair, it's covering my view I'm ...)
Part 2 (... holding onto you, on a bike we've hired until tomorrow)
Part 3
Part 4
Part 5
Part 6
Part 7
Part 1 (If only they could see, if only they had been there)
Part 2 (They would understand, how someone could have chosen)
Part 1 (To go the length I've gone, to spend just one day riding)
Part 2 (Holding onto you, I never thought it would be this clear)
Part 1
Part 2
Part 1
Part 2
Part 1
Part 2
Part 1
Part 2
End on first note of part 1


It's difficult to distinguish the other guitar part playing over the main guitar, but it
something like this. It is played somewhat fast. Each of the below measures are played
each.

e|---------9----------9-------------------------------------------------|
B|-----11---------11---------11-----------------------------------------|
G|-10---------10---------10---------------------------------------------|
D|----------------------------------------------------------------------|
A|----------------------------------------------------------------------|
E|----------------------------------------------------------------------|

e|--------8---------8---------------------------------------------------|
B|-----9---------9---------9--------------------------------------------|
G|-10--------10--------10-----------------------------------------------|
D|----------------------------------------------------------------------|
A|----------------------------------------------------------------------|
E|----------------------------------------------------------------------|

What a great song. Reminds us all that sometimes we just need to enjoy the simplicity of
especially when it comes to love.
            
Hard to play? Try these video lessons and learn fast. | Correct




comments powered by Disqus
↑ Back to top | Tablatures and chords are parodies/interpretations of the original songs. You may use it for private study, scholarship, research or language learning purposes only