>
 >
Cayman Islands 1

Cayman Islands 1 Guitar Tabs

Kings Of Convenience - Cayman Islands 1 chords, tabs, tablatures, lyrics

Guitar lessons | Add/correct | Request | Top 50 tabs Artists:  A B C D E F G H I J K L M N O P Q R S T U V W X Y Z 0-9

Cayman Islands 1 Guitar Tabs – Kings Of Convenience

CD, Sheet music, Poster

Do you like Cayman Islands 1? Share with your friends now
TabsTabs v2
-----------------------------------------------------------------------------
Cayman Islands - Kings of Convenience
-----------------------------------------------------------------------------


"T" = Fret #10
"|: :|" = Repeat
"/" = Slide up
"\" = Slide down


*****************************************************************************


Guitar #1 - Eirik
Standard Tuning / Capo 1

Main riff:

|0---------------0---------------|0-------------------------------|
|----------3---------------3-----|----------3-----1-------0-------|
|------2---------------2---------|------2---------------2---------|
|----3---------------3-----------|----3---------------3-------0---|
|--------------------------------|--------------------------------|
|1-----------1---1-----------1---|3-----------3---3---------------|

|--------------------------------|--------------------------------|
|0---------0-----0---------0-----|0---------0-----1-------3-------|
|------0---------------0---------|------0---------------0---------|
|----2---------------2-----------|----2---------------2-----------|
|3-----------3---3-----------3---|0-----------0---0-----------0---|
|--------------------------------|--------------------------------|


Bridge riff:
[Played after "On a bike we hired until tomorrow..."]

|--------------------------------|--------------------------------|
|3---------3-----3---------3-----|3---------3-----0---------0-----|
|------2---------------2---------|------2---------------2---------|
|----3---------------3-----------|----3---------------3-----------|
|--------------------------------|--------------------------------|
|1-----------1---1-----------0---|3-----------3---3-----------3---|


Instrumental riff:

|0---------------0---------------|0---------------0---------------|
|----------3---------------3-----|----------3---------------0-----|
|------2---------------2---------|------2---------------2---------|
|----4---------------4-----------|----4---------------4-----------|
|--------------------------------|--------------------------------|
|2-----------2---2-----------2---|2-----------2---2-----------2---|

|0---------------0---------------|0---------------0---------------|
|----------3---------------3-----|----------3---------------3-----|
|------2---------------2---------|------0---------------0---------|
|----3---------------3-----------|----0---------------0-----------|
|--------------------------------|--------------------------------|
|1-----------1---1-----------1---|0-----------0---0-----------0---|

|0---------------0---------------|
|----------0---------------0-----|
|------2---------------2---------|
|----0---------------0-----------|
|--------------------------------|
|0-----------0---0-----------0---|

|8---------------8---------------|8---------------8---------------|
|----------0---------------0-----|----------0---------------0-----|
|------0---------------0---------|------0---------------0---------|
|----7---------------7-----------|----7---------------7-----------|
|0-----------0---0-----------0---|0-----------0---0-----------0---|
|--------------------------------|--------------------------------|

|0---------------0---------------|0---------------0---------------|
|----------0---------------0-----|----------0---------------0-----|
|------5---------------5---------|------5---------------5---------|
|----7---------------7-----------|----7---------------7-----------|
|0-----------0---0-----------0---|0-----------0---0-----------0---|
|--------------------------------|--------------------------------|

Closing riff:
[Same as main riff, repeat until last note]

...|---||
...|---||
...|---||
...|---||
...|---||
...|1--||


*****************************************************************************


Guitar #2 - Erland
Standard Tuning / Capo 1

Opening riff:

|----8-----8---------8-----8-----|----8-----8---------8-----8-----|
|--T-----T-----T---T-----T-----T-|--T-----T-----T---T-----T-----T-|
|------9---------------9---------|------7---------------7---------|
|T-----------T---T-----------T---|T-----------T---T-----------T---|
|--------------------------------|--------------------------------|
|--------------------------------|--------------------------------|

|----0-----0---------0-----0-----|----0-----0---------0-----0-----|
|--T-----T-----T---T-----T-----T-|--8-----8-----8---8-----8-----8-|
|------7---------------7---------|------5---------------5---------|
|9-----------9---9-----------9---|7-----------7---7-----------7---|
|--------------------------------|--------------------------------|
|--------------------------------|--------------------------------|

|----0-----0---------0-----0-----|----0-----0---------0-----0-----|
|--T-----T-----T---T-----T-----T-|--8-----8-----8---8-----8-----8-|
|------7---------------7---------|------5---------------5---------|
|9-----------9---9-----------9---|7-----------7---7-----------7---|
|--------------------------------|--------------------------------|
|--------------------------------|--------------------------------|

|----0-----0---------0-----0-----|---|
|--T-----T-----T---T-----T-----T-|---|
|------7---------------7---------|---|
|9-----------9---9-----------9---|7--|
|--------------------------------|---|
|--------------------------------|---|


Instrumental riff:
[Optional, based on live performances]

|----5-----5---------5-----5-----|----5-----5---------5-----5-----|
|--7-----7-----7---7-----7-----7-|--7-----7-----7---7-----7-----7-|
|------6---------------6---------|------6---------------6---------|
|7-----------7---7-----------7---|7-----------7---7-----------7---|
|--------------------------------|--------------------------------|
|--------------------------------|--------------------------------|

|----5-----5---------5-----5-----|----0-----0---------0-----0-----|
|--6-----6-----6---6-----6-----6-|--8-----8-----8---8-----8-----8-|
|------5---------------5---------|------7---------------7---------|
|7-----------7---7-----------7---|7-----------7---7-----------7---|
|--------------------------------|--------------------------------|
|--------------------------------|--------------------------------|

|----0-----0---------0-----0-----|
|--8-----8-----8---8-----8-----8-|
|------7---------------7---------|
|7-----------7---7-----------7---|
|--------------------------------|
|--------------------------------|

|----8-----8---------8-----8-----|----8-----8---------8-----8-----|
|--T-----T-----T---T-----T-----T-|--T-----T-----T---T-----T-----T-|
|------9---------------9---------|------7---------------7---------|
|T-----------T---T-----------T---|T-----------T---T-----------T---|
|--------------------------------|--------------------------------|
|--------------------------------|--------------------------------|

|----8-----8---------8-----8-----|---|
|--T-----T-----T---T-----T-----T-|---|
|------9---------------9---------|---|
|T-----------T---T-----------T---|T--|
|--------------------------------|---|
|--------------------------------|---|


Closing riff:

|:----8-----8---------8-----8-----|----8-----8---------8-----8-----|
|:--T-----T-----T---T-----T-----T-|--T-----T-----T---T-----T-----T-|
|:------9---------------9---------|------7---------------7---------|
|:T-----------T---T-----------T---|T-----------T---T-----------T---|
|:--------------------------------|--------------------------------|
|:--------------------------------|--------------------------------|

|----0-----0---------0-----0-----|----0-----0---------0-----0-----:|
|--T-----T-----T---T-----T-----T-|--8-----8-----8---8-----8-----8-:|
|------7---------------7---------|------5---------------5---------:|
|9-----------9---9-----------9---|7-----------7---7-----------7---:|
|--------------------------------|--------------------------------:|
|--------------------------------|--------------------------------:|

|----0-----0---------0-----0-----|----0-----0---------0-----0-----|
|--8-----8-----8---8-----8-----8-|--8-----8-----8---8-----8-----8-|
|------5---------------5---------|------7---------------7---------|
|7-----------7---7-----------7---|5-----------5---5-----------5---|
|--------------------------------|--------------------------------|
|--------------------------------|--------------------------------|

|----0-----0---------0-----0-----|----0-----0---------0-----0-----|
|--8-----8-----8---8-----8-------|--T-----T-----T---T-----T-----T-|
|------7---------------7---------|------9---------------9---------|
|5-----------5---5-----------5-/-|7-----------7---7-----------7---|
|--------------------------------|--------------------------------|
|--------------------------------|--------------------------------|

|----0-----0---------0-----0-----|----0-----0---------0-----0-----|
|--8-----8-----8---8-----8-----8-|--8-----8-----8---8-----8-----8-|
|------5---------------5---------|------7---------------7---------|
|7-----------7---7-----------7---|5-----------5---5-----------5---|
|--------------------------------|--------------------------------|
|--------------------------------|--------------------------------|

|----0-----0---------0-----0-----|----5-----5---------5-----5-----|---||
|--8-----8-----8---8-----8-------|--8-----8-----8---8-----8-------|---||
|------7---------------7---------|------5---------------5---------|---||
|5-----------5---5-----------9-\-|7-----------7---7-----------7-/-|T--||
|--------------------------------|--------------------------------|---||
|--------------------------------|--------------------------------|---||


*****************************************************************************


Notes:

In the live version of this song, the capo is at fret 2 instead of 1. It also
features the additional guitar in the instrumental section, and an alternate 
ending (returns to the opening theme for 2 rounds with the 3 final chords 
plucked [Guitar 1: x0201x > x0203x > 0xx230; Guitar 2: xx759x > xx97Tx > 
xxT9T0]).

The live version contains some improvised ornaments in guitar #2 right before 
the closing riff. Usually it's just one or two notes (8 on the B string & 9 
on the G string) over the span of the guitar #1 main riff. Watch one of their 


Thought I'd release this cohesive tab since Erland's part (guitar #2) is 
nowhere to be found online. The tab above should be faithful to the 3-3-2 
rhythm incase timing is an issue. Hope this helps everyone out who loves this 
song as much as I do.





Comments


Popular Kings Of Convenience tabs & chords
24-25 Chords
24-25 1 Tabs
Caymen Islands Tabs
Free Falling Tabs
Girl From Back Then Tabs
Know How 1 Tabs
Know How 3 Tabs
Brave New World Ukulele
Once Around The Block Ukulele
Stay Out Of Trouble Ukulele


Song lyrics



↑ Back to top | Tablatures and chords are parodies/interpretations of the original songs. You may use it for private study, scholarship, research or language learning purposes only
© 2014 AZChords.com Contact us | Privacy policy | DMCA | Add/correct tabs | Request tabs | Top 50 tabs