>
 >
Lazy Afternoon Guitar

Lazy Afternoon Guitar Guitar Tabs

Kingdom Hearts - Lazy Afternoon Guitar chords, tabs, tablatures, lyrics

Guitar lessons | Add/correct | Request | Top 50 tabs Artists:  A B C D E F G H I J K L M N O P Q R S T U V W X Y Z 0-9

Lazy Afternoon Guitar Guitar Tabs – Kingdom Hearts

CD, Sheet music, Poster

Do you like Lazy Afternoon Guitar? Share with your friends now
Tabs
    E  E  E  E  E  E  E  E     E  E  E  E  E  E  E  E   
E||--------------------------|--------------------------|
B||--------0-----1-----------|--------0-----------------|
G||-----------------0-----0--|--------------2-----------|
D||--------0-----2-----2-----|--------0-----2--2-----2--|
A||-----2-----2--------------|-----2-----2--3-----3-----|
E||--3-----3-----3-----------|--3-----3-----------------|


  E  E  E  E  E  E  E  E     E  E  E  E  E  E  E  S S  
--------------------------|---------------------------|
--------0-----1-----------|--------0--------------0-1-|
-----------------0-----0--|--------------2------------|
--------0-----2-----2-----|--------0-----2--2-----2---|
-----2-----2--------------|-----2-----2--3-----3------|
--3-----3-----3-----------|--3-----3------------------|


  E  E  E  E  E  E  E  E     E  E  E  E  E  E  E  E     E  E  Q    Q    Q     
--------------------3-----|--------------------------|-----------------------|
--3--------------------3--|--1--------0--------------|--1--0-----------------|
--------0-----------------|--------------0-----------|--------0---------2----|
-----0-----0-----4--0--4--|--------3-----2-----2--4--|--2--------------------|
--------------------------|-----3-----3-----2--------|--3----------3---------|
--3-----------2-----------|--1-----------------------|-----------------------|


  E  E  E  E  E  E  Q       E  E  E  E  Q    Q       E  E  E  E  E  E  E  E   
-------------------------|-------------------0----|--------------------------|
--0----------------------|--0--------1--3---------|--3-----1-----------------|
--------0-----------0----|-----------2--0---------|--------------------0--2--|
--------0-----------0----|--------3----------0----|--------2-----------------|
-----2-----2-----2-------|-----3------------------|-----2-----2-----------0--|
--3-----------3----------|--1---------------------|--0-----------0--2--3-----|


  E  E  E  E  E  E  E  E     Q    E.  S S E.  Q       E  E  E  E  E  E  E  E   
--------------------------|------------------------|--------------------------|
--0--------1--0-----------|------------------------|--0--------1--3-----------|
--------0-----------2-----|--0---------------------|-----------2--4--2--------|
-----2-----------0--------|-------4---2-4-2---0----|-----0--3-----------3--0--|
--2-----------2-----0-----|------------------------|--2-----------------------|
-----------------------2--|--3----2----------------|--------------------------|


  E  E  E  E  E  E  E  S S    E  E  E  E  E  E  E  E   
---------------------------|-----------------0--2--3--|
--------0--1--0------------|--0-----------L-----------|
-----2-----1-----2-----0-2-|--------------------------|
--------2-----2------------|--------2-----1-----------|
-----2-----------2-----2---|-----2-----2--------------|
--0-----------------0------|--0-----------------------|


  E  E  E  E  E  E  E  E     S S S S Q    Q    S S S S  
--------0-----2-----3-----|--5-3-5-7-0----L--------2-3-|
--0-----0-----------3-----|----------------------------|
-----0-----0-----2-----2--|------------------------0---|
--0-----------4-----------|----------------------2---2-|
--------------------------|--0-----------------3-------|
--------------------------|----------------------------|


  Q    E.  S S E.  Q       E  E  E  E  E  E  E  E     E.  S E  S S E  E  E  E   
--5----3---2-3-2--------|-----------------0--2--3--|--2---0-L----0-5--3--2--0--|
------------------------|--0-----------L-----------|-----------4---------------|
-------------------2----|--------------------------|---------------------------|
--0---------------------|--------2-----1-----------|--0------------------------|
------------------------|-----2-----2--------------|---------------0-----------|
------------------------|--0-----------------------|---------------------------|


  E  E  H.              E  E  H        Q       S S S S H.            
--7-----0------------|--5--2----------------|-----------------------|
-----8---------------|--------3--------3----|--1-0---0-L------------|
---------------------|--2-------------------|------2----------------|
---------------------|--0-------------------|-----------------------|
---------------------|----------------------|-----------------------|
--8------------------|----------------------|--3--------------------|


  W                  
-------------------||
--L----------------||
-------------------||
-------------------||
-------------------||
-------------------||




Duration Legend
---------------
W - whole
H - half
Q - quarter
E - 8th
S - 16th
T - 32nd
X - 64th
. - note dotted





Comments


Popular Kingdom Hearts tabs & chords
Simple Clean Bass Tabs
Dearly Beloved 2 Tabs
Dearly Beloved 5 Tabs
Hikari 1 Tabs
Hikari 2 Tabs
Hollow Bastion Tabs
Kairis Theme Tabs
Kairis Theme 1 Tabs
Rising Sun Tabs
Traverse Town Tabs


Song lyrics



↑ Back to top | Tablatures and chords are parodies/interpretations of the original songs. You may use it for private study, scholarship, research or language learning purposes only
© 2014 AZChords.com Contact us | Privacy policy | DMCA | Add/correct tabs | Request tabs | Top 50 tabs