» » »

Kingdom Hearts, Traverse Town Tabs (ver.1)

Artists:  A B C D E F G H I J K L M N O P Q R S T U V W X Y Z # 

Traverse Town Tabs (ver.1)

Kingdom Hearts Tabs
Rating:
4/5 (8 votes)
Traverse Town lessons Tabs too difficult? Try these video lessons and learn fast
                ----------------------------------------------------------------------------
                            Kingdom Hearts - Traverse Town BGM 
-------------------------------------------------------------------------------

Tuning: standard

(MAIN FLUTE)
e|----------7--6-----6-----------------------------------------|---------|
B|--7----9--------9-----7-----------7--6--9-------7--6--7--9---|---------|  
G|-------------------------6---6h8-----------6h8---------------|--repeat-|  
D|-------------------------------------------------------------|---2x----|
A|-------------------------------------------------------------|---------|
E|-------------------------------------------------------------|---------|

immediately after the 2nd time...

e|-----9--7--12---9--7---------7-------------------------------7-----------|
B|-10-------------------10--9-----10--9--5--7--5h7--10--10--9-----10--9--7-|
G|-------------------------------------------------------------------------|
D|-------------------------------------------------------------------------|
A|-------------------------------------------------------------------------|
E|-------------------------------------------------------------------------|

repeat for the whole song

(BASS)               (PIANO)
e|-------------------|-------------------------|
B|-------------------|-------------------------|
G|-------------------|-------------------------|
D|-(with variations)-|-------------------------|
A|-------------------|---5--0--5----5--7--0----|
E|--3--0--3----5--0--|-------------------------|

| h  hammer-on
| p  pull-off

============================================================================
            
Submit corrections

comments powered by Disqus
↑ Back to top | Kingdom Hearts Tabs for Traverse Town. Lyrics for acoustic guitar and electric guitar. Tablatures and chords are parodies/interpretations of the original songs. You may use it for private study, scholarship, research or language learning purposes only