» » »

Lazy Afternoons Tabs (ver.1)

Artists:  A B C D E F G H I J K L M N O P Q R S T U V W X Y Z # 

Lazy Afternoons Tabs (ver.1)

Kingdom Hearts
Rating:
4/5 (3 votes)

Hard to play? Try these video lessons and learn fast.
                ---------3----------------------------------------0----------------------|
0-1-3--------3-1---0-------1-0----------0---0-1-3---3---1---------0---1-0|
-----------------------0--------0---2-----------------------0-2----------|
-------------------------------------------------------------------------|
-------------------------------------------------------------------------|
-------------------------------------------------------------------------|


-------------------------------------------------------------------------|
---------------------0-1-3---0-1-3-1--0----0-1-(0-1 again in background)-|
2---0-----------------------------------2--------------------------------|
------4---2h4p2-0--------------------------------------------------------|
-------------------------------------------------------------------------|
-------------------------------------------------------------------------|



--------------------0-2-3----0-2-3--5-3-5-7-0---2-3-5---3--2h3p2---------|
---0-1-0-------0----------0------------------------------------------0---|
2--------2-0-2---------------------------------------------------2-------|
-------------------------------------------------------------------------|
-------------------------------------------------------------------------|
-------------------------------------------------------------------------|



0-2-3-2--0----0-5-3-2-0--7-3-0-----5-2-----------------------------------|
------------4--------------------------3---3--1-0---0--------------------|
--------------------------------------------------2----------------------|
-------------------------------------------------------------------------|
-------------------------------------------------------------------------|
-------------------------------------------------------------------------|

restart
            
Hard to play? Try these video lessons and learn fast. | Correct




comments powered by Disqus
↑ Back to top | Tablatures and chords are parodies/interpretations of the original songs. You may use it for private study, scholarship, research or language learning purposes only