» » »

Play That Funky Music Bass tabs (ver.3)

Artists:  A B C D E F G H I J K L M N O P Q R S T U V W X Y Z # 

Play That Funky Music Bass tabs (ver.3)

Kc And The Sunshine Band
Rating:
0/5 (0 votes)

Hard to play? Try these video lessons and learn fast.
                Ok here is the main riff to play that funky musc.        X= Dead note.    H= Hammeron

G-----------------------
D----3----------1---1h3-
A-------1--3-X----3-----
E-11--------------------

G-----------------------
D----3----------1---1h3-
A-------1--3-X----3-----
E-11--------------------

well thats that..... its only the main riff but i only started tabbing it yester day so dont complain.
            
Hard to play? Try these video lessons and learn fast. | Correct




comments powered by Disqus
↑ Back to top | Tablatures and chords are parodies/interpretations of the original songs. You may use it for private study, scholarship, research or language learning purposes only