» » »

Kc And The Sunshine Band, Give It Up Bass tabs (ver.1)

Artists:  A B C D E F G H I J K L M N O P Q R S T U V W X Y Z # 

Give It Up Bass tabs (ver.1)

Kc And The Sunshine Band Tabs
Rating:
0/5 (0 votes)
Give It Up lessons Tabs too difficult? Try these video lessons and learn fast
                ----------------------------------------------------------------------------
			   Give It Up-Kc And The Sunshine Band
----------------------------------------------------------------------------


Tuning:standard

Most of the song
G|----------------------------------------------------------------------------|
D|----------------------------------------------------------------------------|
A|----------------------------------------------------------------------------|
E|-11-/-66-4-44-4-6-----------------------------------------------------------|

the part just after the chorus
G|---------------------------------------------------------------------------|
D|---------------------------------------------------------------------------|
A|---------------------------------------------------------------------------|
E|-4----4-4-4--6--6-6-6------------------------------------------------------|
 that bit is just 4 and 6 on the e-string you can get rhythm yourself

just a variation at the end then- the outro and the last chorus

G|---------------------------------------------------------------------------|
D|--------------------------8-8----------------------------------------------|
A|--6--5--5--------------6-------5-------------------------------------------|
E|----------4-4--6-----------------4--4--6-----------------------------------|

thats pretty much it and i'm open to corrections
            
Submit corrections

comments powered by Disqus
↑ Back to top | Kc And The Sunshine Band Bass for Give It Up. Lyrics for acoustic guitar and electric guitar. Tablatures and chords are parodies/interpretations of the original songs. You may use it for private study, scholarship, research or language learning purposes only