» » »

Play That Funky Music Bass

Artists:  A B C D E F G H I J K L M N O P Q R S T U V W X Y Z # 

Play That Funky Music Bass

(ver. 1)
Kc And The Sunshine Band Tabs
 Rating:
4/5 (4 votes)
    Play That Funky Music lessons Tabs too difficult? Try these video lessons and learn fast
                It sounds like there is two bass parts but this is the cool one (and the easy one).The bass-line for this song is very easy. I figured it out on my guitar by plucking the strings outward to get a slap-like sound.

Legend: h = Hammer On

[Intro/Verse]

G -------------------------
D --------2--0--2-------0h2
A -----------------0h2-----
E --0--0-------------------

[Pre-Chorus]

G -----------
D --2--0--0h2
A -----------
E -----------

[Chorus]

G -------------------------
D --------2--0--2-------0h2
A -----------------0h2-----
E --0--0-------------------
            
Submit corrections

↑ Back to top | Kc And The Sunshine Band Bass for Play That Funky Music. Lyrics for acoustic guitar and electric guitar. Tablatures and chords are parodies/interpretations of the original songs. You may use it for private study, scholarship, research or language learning purposes only