» » »

Hot N Cold Tabs (ver.2)

Artists:  A B C D E F G H I J K L M N O P Q R S T U V W X Y Z # 

Hot N Cold Tabs (ver.2)

Katy Perry
Rating:
5/5 (11 votes)

Hard to play? Try these video lessons and learn fast.
                Note: You can play this song without guitar 2, but once you play it with both  
sounds awesome, try it. And please rate.

-Intro 

Guitar 1
Play Chords

G - D - Am - C - G - D - Am - C

Guitar 2 (Palm Muted)
e|-----------------------------------------------------------|
B|-----------------------------------------------------------|
G|--------7-------------5------------------------------------|   x2
D|-5------7-x8---7------5-x8---------------------------------|
A|-5-x8---5------7-x8---3------------------------------------|
E|-3-------------5-------------------------------------------|
   G5     D5     A5     C5



-Verse

Guitar 1
D                Am
You change your mind 
        C              G
Like a girl changes clothes 
      D      Am
Yeah you, PMS 
         C
Like a b**ch 
         G
I would know 
     D         Am
And you over-think 
         C
Always speak
        G 
Critically 
          D
I should know 
        Am                C        G
That you're no good for me 

Guitar 2 (Palm Muted)
e|-----------------------------------------------------------|
B|-----------------------------------------------------------|
G|--------7-------------5------------------------------------|   x2
D|-5------7-x8---7------5-x8---------------------------------|
A|-5-x8---5------7-x8---3------------------------------------|
E|-3-------------5-------------------------------------------|
   G5     D5     A5     C5



-Chorus

Guitar 1
              D
Cause you're hot then you're cold 
        Am
You're yes then you're no 
        C
You're in then you're out 
        G
You're up then you're down 
        D
You're wrong when it's right 
        Am
It's black and it's white 
        C
We fight, we break up 
        G
We kiss, we make up 
 D                              A
(You) You don't really want to stay, no 
C                                   G
(But You) you don't really want to go
        D
You're hot then you're cold 
        Am
You're yes then you're no 
        C
You're in then you're out
        G 
You're up then you're down 

Guitar 2
e|----------------------------------------------------|
B|----------------------------------------------------|
G|-7-------------5------------------------------------| x2
D|-7-x8---7------5-x8---5-----------------------------|
A|-5------7-x8---3------5-x8--------------------------|
E|--------5-------------3-----------------------------|
   D5     A5     C5     G5

e|-----------------------------------|
B|-----------------------------------|
G|-7-777777--------5-555555----------|
D|-7-777777--7-7-7-5-555555--5-5-5---|
A|-5-555555--7-7-7-3-333333--5-5-5---|
E|-----------5-5-5-----------3-3-3---|
   D5        A5    C5        G5

e|----------------------------------------------------|
B|----------------------------------------------------|
G|-7-------------5------------------------------------|
D|-7-x8---7------5-x8---5-----------------------------|
A|-5------7-x8---3------5-x8--------------------------|
E|--------5-------------3-----------------------------|
   D5     A5     C5     G5



-Verse 2

Guitar 1
D          Am
We used to be 
            C           G
Just like twins, so in sync
      D      Am
The same energy
         C         G
now's a dead battery 
         D                 Am
Used to laugh, 'bout nothing
             C        G
Now you're plain boring 
          D
I should know
        Am                C          G 
That you're not gonna change 

Guitar 2 (Palm Muted)
e|-----------------------------------------------------------|
B|-----------------------------------------------------------|
G|--------7-------------5------------------------------------|   x2
D|-5------7-x8---7------5-x8---------------------------------|
A|-5-x8---5------7-x8---3------------------------------------|
E|-3-------------5-------------------------------------------|
   G5     D5     A5     C5



-Chorus

Guitar 1
              D
Cause you're hot then you're cold 
        Am
You're yes then you're no 
        C
You're in then you're out 
        G
You're up then you're down 
        D
You're wrong when it's right 
        Am
It's black and it's white 
        C
We fight, we break up 
        G
We kiss, we make up 
 D                              A
(You) You don't really want to stay, no 
C                                   G
(But You) you don't really want to go 
        D
You're hot then you're cold 
        Am
You're yes then you're no 
        C
You're in then you're out
        G 
You're up then you're down 

Guitar 2
e|----------------------------------------------------|
B|----------------------------------------------------|
G|-7-------------5------------------------------------| x2
D|-7-x8---7------5-x8---5-----------------------------|
A|-5------7-x8---3------5-x8--------------------------|
E|--------5-------------3-----------------------------|
   D5     A5     C5     G5

e|-----------------------------------|
B|-----------------------------------|
G|-7-777777--------5-555555----------|
D|-7-777777--7-7-7-5-555555--5-5-5---|
A|-5-555555--7-7-7-3-333333--5-5-5---|
E|-----------5-5-5-----------3-3-3---|
   D5        A5    C5        G5

e|----------------------------------------------------|
B|----------------------------------------------------|
G|-7-------------5------------------------------------|
D|-7-x8---7------5-x8---5-----------------------------|
A|-5------7-x8---3------5-x8--------------------------|
E|--------5-------------3-----------------------------|
   D5     A5     C5     G5



-Bridge

Guitar 1
Part 1
G       D
 Someone call the doctor 
Am                       C
 Got a case of a love bi-polar 
G          D
 Stuck on a roller coaster 
Am                  C
Can't get off this ride 

Part 2
In this part just play chord once. (All down-strokes)
D                A
You change your mind 
        C              G
Like a girl changes clothes

Guitar 2 (Played in Bridge, Part 1)
e|-------------------------------------------------------------------------|
B|-------------------------------------------------------------------------|
G|-------------------------------------------------------------------------|
D|-------------------------------------------------------------------------|
A|-5555555555-x10-12121212121212121212-x10-777777777-x10-1010101010-x10----|
E|-3333333333-----10101010101010101010-----555555555-----8888888888--------|
                 (Those are 10 not 1)                 (Those are 10 not 1)



-Chorus

Guitar 1
              D
Cause you're hot then you're cold 
        Am
You're yes then you're no 
        C
You're in then you're out 
        G
You're up then you're down 
        D
You're wrong when it's right 
        Am
It's black and it's white 
        C
We fight, we break up 
        G
We kiss, we make up 
 D                              A
(You) You don't really want to stay, no 
C                                   G
(But You) you don't really want to go 
        D
You're hot then you're cold 
        Am
You're yes then you're no 
        C
You're in then you're out
        G 
You're up then you're down 

Guitar 2
e|----------------------------------------------------|
B|----------------------------------------------------|
G|-7-------------5------------------------------------| x2
D|-7-x8---7------5-x8---5-----------------------------|
A|-5------7-x8---3------5-x8--------------------------|
E|--------5-------------3-----------------------------|
   D5     A5     C5     G5

e|-----------------------------------|
B|-----------------------------------|
G|-7-777777--------5-555555----------|
D|-7-777777--7-7-7-5-555555--5-5-5---|
A|-5-555555--7-7-7-3-333333--5-5-5---|
E|-----------5-5-5-----------3-3-3---|
   D5        A5    C5        G5

e|----------------------------------------------------|
B|----------------------------------------------------|
G|-7-------------5------------------------------------|
D|-7-x8---7------5-x8---5-----------------------------|
A|-5------7-x8---3------5-x8--------------------------|
E|--------5-------------3-----------------------------|
   D5     A5     C5     G5



| /  slide up
| \  slide down
| h  hammer-on
| p  pull-off
| ~  vibrato
| +  harmonic
| x  Mute note
=============================================================================
            
Hard to play? Try these video lessons and learn fast. | Correct




comments powered by Disqus
↑ Back to top | Tablatures and chords are parodies/interpretations of the original songs. You may use it for private study, scholarship, research or language learning purposes only