» » »

Hot N Cold Tabs (ver.1)

Artists:  A B C D E F G H I J K L M N O P Q R S T U V W X Y Z # 

Hot N Cold Tabs (ver.1)

Katy Perry
Rating:
3/5 (6 votes)

Hard to play? Try these video lessons and learn fast.
                katy perry
hot n cold
guitar1 standard
guitar 2 Drop D

intro/verse guitar1
e---------------------------------------------------------------------|
B---------------------------------------------------------------------|
G---------------------------------------------------------------------|
D-5555555555555555-0000000000000000-7777777777777777------------------|
A----------------------------------------------------3333333333333333-|
E---------------------------------------------------------------------|

Chorus guitar1
e----------------------------|
B----------------------------|
G-7-777--2-222--9-999--------|
D-5-555--0-000--7-777--5-555-|
A----------------------3-333-|
E----------------------------|

Chourus guitar2
e--------------------------------|
B--------------------------------|
G--------------------------------|
D-5-555--0-000--7-777--10-101010-|
A-5-555--0-000--7-777--10-101010-|
D-5-555--0-000--7-777--10-101010-|

verse guitar1
e---------------------------------------------------------------------|
B---------------------------------------------------------------------|
G---------------------------------------------------------------------|
D-5555555555555555-0000000000000000-7777777777777777------------------|
A----------------------------------------------------3333333333333333-|
E---------------------------------------------------------------------|
interlude/ bridge guitar 1
e-------------------------------|
B-------------------------------|
G-44-7-9999-9-77-11-11111111-12-|
D-------------------------------|
A-------------------------------|
E-------------------------------|
interlude/ bridge guitar 2
e---------------------|
B---------------------|
G---------------------|
D---------------------|
A---------------------|
E-2-2/10-10/5-5/12-12-|
Pre chorus guitar 2
e------------------|
B------------------|
G------------------|
D------------------|
A------------------|
D-5--/12--/7--/10--|

Chorus guitar1 (untill end)
e----------------------------|
B----------------------------|
G-7-777--2-222--9-999--------|
D-5-555--0-000--7-777--5-555-|
A----------------------3-333-|
E----------------------------|

Chourus guitar2 (untill end)
e--------------------------------|
B--------------------------------|
G--------------------------------|
D-5-555--0-000--7-777--10-101010-|
A-5-555--0-000--7-777--10-101010-|
D-5-555--0-000--7-777--10-101010-|
            
Hard to play? Try these video lessons and learn fast. | Correct




comments powered by Disqus
↑ Back to top | Tablatures and chords are parodies/interpretations of the original songs. You may use it for private study, scholarship, research or language learning purposes only