» » »

Katy Perry, E.T Tabs (ver.1)

Artists:  A B C D E F G H I J K L M N O P Q R S T U V W X Y Z # 

E.T Tabs (ver.1)

Katy Perry Tabs
 Rating:
4/5 (4 votes)
E.T lessons Tabs too difficult? Try these video lessons and learn fast
                VERSE 1: You're so hypnotizing ...
|---------------------------------------|
|---------------------------------------|
|1--1--1-1-1-1--1-0-1-0-1----1-0-1-0-1--|
|-------------------------3------------3|
|---------------------------------------|
|---------------------------------------|x2

They say be afraid ...
|---------------------------------------|
|---------------------------------------|
|1--1--1-1-1--1-0-1-0-1----1-0-1-0-1----|
|-----------------------3------------3--|
|---------------------------------------|
|---------------------------------------|

Different DNA ...
|---------------------------------------|
|---------------------------------------|
|1--1--1-1-1--1-0-1-0-1-----------------|
|-----------------------3---------------|
|---------------------------------------|
|---------------------------------------|

CHORUS: You're from a whole other world ...
|---------------------------------------|
|------1-----------1-------------1------|
|1-0------3-1-0-------3-1-0--------3-1-0|
|----3-----------3----------3--3--------|
|---------------------------------------|
|---------------------------------------|

I'm ready to go ...
|---------------------------------------|
|---------------------3-3---------------|
|---------------------------------------|
|3--3-3-3--3-3-3--3-3-------------------|
|---------------------------------------|
|---------------------------------------|

Kiss me, k-k-kiss me ...
|---------------------------------------|
|---------------------------------------|
|1--1--1-1-1-1--1-0-1-0-1----1-0-1-0-1--|
|-------------------------3------------3|
|---------------------------------------|
|---------------------------------------|x2

Boy, you're an alien ...
|---------------------------------------|
|-------1-2-1---------1-----------------|
|---1-3-----------1-3---1---------------|
|3-------------3----------3-------------|
|---------------------------------------|
|---------------------------------------|x2

VERSE 2 You're so supersonic ...
|---------------------------------------|
|---------------------------------------|
|1--1--1-1-1-1--1-0-1-0-1----1-0-1-0-1--|
|-------------------------3------------3|
|---------------------------------------|
|---------------------------------------|

Your kiss is cosmic ...
|---------------------------------------|
|---------------------------------------|
|1--1--1-1-1--1-0-1-0-1-----------------|
|-----------------------3---------------|
|---------------------------------------|
|---------------------------------------|

CHORUS

I'm trying to figure out the next part but after that it's again the chorus  
            
Submit corrections

comments powered by Disqus
↑ Back to top | Katy Perry Tabs for E.T. Lyrics for acoustic guitar and electric guitar. Tablatures and chords are parodies/interpretations of the original songs. You may use it for private study, scholarship, research or language learning purposes only