>
 >
Gorgeous

Gorgeous Guitar Tabs

Kashmir - Gorgeous chords, tabs, tablatures, lyrics

Guitar lessons | Add/correct | Request | Top 50 tabs Artists:  A B C D E F G H I J K L M N O P Q R S T U V W X Y Z 0-9

Gorgeous Guitar Tabs – Kashmir

CD, Sheet music, Poster

Do you like Gorgeous? Share with your friends now
TabsTabs v2


INTRO / OUTRO
D/a E/a A 
e--2-----4-----5-- -g- ------------------------------ --12---11--
h--3-----5-----5-- -e- -----------10---10---12---10-- --10---10--
g--2-----4-----6-- -n- --7----9----9---10---10----9-- ---9----9--
d--4-----6-----7-- -t- --9---11---11---12---12---11-- --11---11--
a--0-----0-----0-- -a- --0----0----0----0----0----0-- ---0----0--
e----------------- -g- ------------------------------ -----------
VERS
A7 A6 A6sus2 Asus2#11 Asus2 A7 A6 D/a Dm/a A
e--0----0----0--------0----------0---- -g- 0----0----(0)---(0)----0-
h--5----5----5--------0----------0---- -e- 5----5-----3-----3-----2-
g--6----6----4--------2----------2---- -n- 6----6-----2-----2-----2-
d--5----4----4--------3----------2---- -t- 5----4-----4-----3-----2-
a--0----0----0--------0----------0---- -a- 0----0-----0-----0-----0-
e------------------------------------- -g- -------------------------
The lonely loonies...
OMKVÆD
Hm11 A/d Asus A Hm11 A/f# E Cmaj7 Fmaj7#11 Asus A
e--0-----0----0-----0- -0-----0-----0- -0------0-------- -0-----0-
h--2-----2----3-----2- -2-----2-----0- -0------0-------- -3-----2-
g--2-----2----2-----2- -2-----2-----1- -0------2-------- -2-----2-
d--0-----0----2-----2- -0-----2-----2- -2------3-------- -2-----2-
a--2----------0-----0- -2-----0-----2- -3------3-------- -0-----0-
e--------------------- -------2-----0- --------1-------- ---------
Is it so gorgeous...
B-STK
Fmaj7#11 Asus2 Fmaj7#11 G6 Fmaj7#11 C
e--0----------0-------0----------0----0----------0--
h--0----------0-------0----------0----0----------1--
g--2----------2-------2----------4----2----------0--
d--3----------2-------3----------5----3----------2--
a--3----------0-------3----------5----3----------3--
e--1------------------1----------3----1-------------
With a rude tongue...
C-STK
D9 D7 D7 D D7 
e--12---14---8----10---5- -g- -5---5---5---5---5---5---5---5-- - -
h--13---13---7-----7---7- -e- -3---3---3---3---3---3---3---3-- - - 
g--11---11---7-----7---5- -n- -5---5---4---4---3---3---2---2-- - - 
d---0----0---0-----0---0- -t- -0---0---0---0---0---0---0---0-- - - 
a------------------------ -a- -------------------------------- - -
e------------------------ -g- --------------------------------





Comments


Popular Kashmir tabs & chords
Ether Bass Tabs
Prawns Blues Bass Tabs
Miss You 1 Chords
Rocket Brothers 1 Chords
Ramparts Tabs
Time Has Deserted Us Tabs
Undisturbed Tabs
Big Fresh Ukulele
Its Ok Now Ukulele
Run To The Avalanche Ukulele


Song lyrics



↑ Back to top | Tablatures and chords are parodies/interpretations of the original songs. You may use it for private study, scholarship, research or language learning purposes only
© 2014 AZChords.com Contact us | Privacy policy | DMCA | Add/correct tabs | Request tabs | Top 50 tabs