>
 >
Gorgeous 1

Gorgeous 1 Guitar Tabs

Kashmir - Gorgeous 1 chords, tabs, tablatures, lyrics

Guitar lessons | Add/correct | Request | Top 50 tabs Artists:  A B C D E F G H I J K L M N O P Q R S T U V W X Y Z 0-9

Gorgeous 1 Guitar Tabs – Kashmir

CD, Sheet music, Poster

Do you like Gorgeous 1? Share with your friends now
TabsTabs v2
Gorgeus by kashmir

Damn this is the best song ever..
Album:The good life
can only be uset in school or pracktis

Play it with pick

intro
--0--0--0--0--0--0--0--0--0-------------------------------------------------|
--7--7--7--7--9--9--9--9--10--10--10--10--10--10--10--10--------------------|
--7--7--7--7--9--9--9--9--9---9---9---9---9---9---9---9---------------------|
--7--7--7--7--9--9--9--9--7---7---7---7---7---7---7---7---------------------|
--0--0--0--0--0--0--0--0--0-------------------------------------------------|
----------------------------------------------------------------------------|

--0--0--0--0--0--0--0--0--0---0---0---0---0---0---0---12--11-----------------|
--7--7--7--7--9--9--9--9--10--10--10--10--10--10--10--10--10-----------------|
--7--7--7--7--9--9--9--9--9---9---9---9---9---9---9---9---9------------------|
--7--7--7--7--9--9--9--9--7---7---7---7---7---7---7---7---9------------------|
--0--0--0--0--0--0--0--0--0---0---0---0---0---0---0---0---0------------------|
-----------------------------------------------------------------------------|

Jeg har lige en ting tiljeg ved ikke hvordan man skal for klare det men spil den med 
greb uden at røre andet ind
D,G og B strengen inde

Det a skal man bare tage med    D 2
                                G 2
                                B 2

 A                             H
 the lonely loonies on the playground
D                             A
 reveal their shadows to the day
                                     H
 they crash in planes on smack and weird sounds
D                               A
 and leaves us gold upon their graves
                               H
 our lives becomes less ordinary
Dm                                A
 show us that it doesn't hurt to die

            Bm
is it so gorgeous
           D       E
is it enchanted
             A
is it revealing

I feel so lucky I have seen you
and rapture spread among the crowd
I wish for once I could have met you
before they wrapped you in a shroud
the giants always get their heads chopped
or drown in muddy waters in the south


is it so gorgeous
is it enchanted
is it forever

is it so gorgeous
is it enchanted
is it eternal

(BERRE GREB)
Cm
with a rude tongue dressed in spiteful eloquence
           B
you would call
Cm
calling for a love that never came
          B                 A
you would wait, you would call
           G#m             E
and you'd wait and you'd call

back here I am in search of answers
I won't accept what I was told
it's only fair to die from cancer
when you're old enough to say you're old
the reverb you left is never over
tolling for the only one who is not present -

still so gorgeous
so enchanted
so forever
is it so gorgeous
is it enhanted
is it eternal

is it tomorrow

Jeg fik lige en besked om at der var en fejl den er nu rettet hvis der ellers er fejl så sig lige til!





Comments


Popular Kashmir tabs & chords
Cursed Of Being A Girl Chords
Swahili Chords
The Push 1 Chords
Ophelia Intro Tabs
Ruby Over Diamonds Tabs
Big Fresh Ukulele
Electrified Love Ukulele
In The Sand Ukulele
Slay The Emperor Ukulele
The New Gold Ukulele


Song lyrics



↑ Back to top | Tablatures and chords are parodies/interpretations of the original songs. You may use it for private study, scholarship, research or language learning purposes only
© 2014 AZChords.com Contact us | Privacy policy | DMCA | Add/correct tabs | Request tabs | Top 50 tabs