» » »

Underdog Tabs (ver.3)

Artists:  A B C D E F G H I J K L M N O P Q R S T U V W X Y Z # 

Underdog Tabs (ver.3)

Kasabian
Rating:
0/5 (0 votes)

Hard to play? Try these video lessons and learn fast.
                (Intro)

This is just the intro part of the song...

|-----------------------|-----------------------|
|-----------------------|-----------------------|
|---10--10--10--10---10-|---8---8---8---8----8--|
|-----------------------|-----------------------|
|-8---8---8---8----8----|-6---6---6---6----6----|
|-----------------------|-----------------------|

|-----------------------|-----------------------|
|-----------------------|-----------------------|
|---5---5---3---3----3--|---10--10--10--10---10-|
|-----------------------|-----------------------|
|-3---3---1---1----1----|-8---8---8---8----8----|
|-----------------------|-----------------------|

The rest of the tune is based around the chords F, Eb, C and Bb.

Enjoy...
            
Hard to play? Try these video lessons and learn fast. | Correct




comments powered by Disqus
↑ Back to top | Tablatures and chords are parodies/interpretations of the original songs. You may use it for private study, scholarship, research or language learning purposes only