» » »

Kasabian, Underdog Tabs

Artists:  A B C D E F G H I J K L M N O P Q R S T U V W X Y Z # 

Underdog Tabs

(ver. 1)
Kasabian Tabs
 Rating:
4/5 (4 votes)
    Underdog lessons Tabs too difficult? Try these video lessons and learn fast

WWW.AZCHORDS.COM | Kasabian Tabs - Underdog Tabs (ver. 1)


                ----------------------------------------------------------------------------
----------------------------------------------------------------------------

any problems, you know what to do.

Tuning:standard

Main Riff/Chorus is that at most times, it varies at the end of each chorus but it's the 
chords, C Bb.
e|---------------------------------------------------------------------------|
B|---------------------------------------------------------------------------|
G|---10----------------------------------------------------------------------|
D|------x5---8--x5------5---5---3---3---3------------------------------------|
A|-8-------6----------3---3---1---1---1--------------------------------------|
E|---------------------------------------------------------------------------|

Verses are just bass


solo
e|---------------------------------------------------------------------------|
B|---------------------------------------------------------------------------|
G|---------------------------------------------------------13b15br13---------|
D|---------------------------------------------------15-13-------------------|
A|------------------------------15-15-15-15-15-15-13-------------------------|
E|-/13~-13/11~-11/16~-13/11/13~----------------------------------------------|

e|--------------------------------------------------------------------------------|
B|--------------------------------------------------------------------------------|
G|------------------------------------------13 13h15-15-13-15/17-17-13~-----------|
D|-13h15-13--------------------13/11---------------------------------------15-15--|
A|----------13h15-13/11--------------13/15----------------------------------------|
E|----------------------13--------------------------------------------------------|

e|------------------------------13/10------------16-------------------------|
B|-13-13-13-----------------13~-------12------------18-16b18-16-------------|
G|----------13--------13-15-----------12-13-10/-----------------17-13-------|
D|--------------15-15-------------------------------------------------15----|
A|--------------------------------------------------------------------------|
E|--------------------------------------------------------------------------|

e|-------------------------------------------------------------------------|
B|---------------------------------------13----------------13--------------|
G|---------------------------------15-13-----13~--------------13~----------|
D|-13rb-8rb/10--13-15-13--15-13-15---------------15-13-15---------15-15----|
A|-------------------------------------------------------------------------|
E|-------------------------------------------------------------------------|

e|---------------------------------------------------------------------------|
B|-13------------------------------------------------------------------------|
G|----13---------------------------------------------------------------------|
D|-------15-13-15-15-15--13~--15~------------13~--15~------------------------|
A|---------------------------------13~--15~------------13~--15~--------------|
E|---------------------------------------------------------------------------|

The solo was weird as like. Done the best i could though.
            
Submit corrections

↑ Back to top | Kasabian Tabs for Underdog. Lyrics for acoustic guitar and electric guitar. Tablatures and chords are parodies/interpretations of the original songs. You may use it for private study, scholarship, research or language learning purposes only