» » »

Fire Tabs (ver.4)

Artists:  A B C D E F G H I J K L M N O P Q R S T U V W X Y Z # 

Fire Tabs (ver.4)

Kasabian
Rating:
0/5 (0 votes)

Hard to play? Try these video lessons and learn fast.
                Chorus
e|-----------------------------------|
B|-----------------------------------|
G|-----------------------------------|
D|555551010108888888888888---55555555|
A|333338-8-8-666666666666688833333333|
E|------------------------666--------|

Riff after chorus
e|---------11-----------------------------------|
B|13-11-13----13-11-13-11-----------------------|
G|------------------------12--12-10-12-10-------|
D|----------------------------------------12-10~|
A|----------------------------------------------|
E|----------------------------------------------|

Tis about it
            
Hard to play? Try these video lessons and learn fast. | Correct




comments powered by Disqus
↑ Back to top | Tablatures and chords are parodies/interpretations of the original songs. You may use it for private study, scholarship, research or language learning purposes only