» » »

Kasabian, Fire Bass tabs (ver.1)

Artists:  A B C D E F G H I J K L M N O P Q R S T U V W X Y Z # 

Fire Bass tabs (ver.1)

Kasabian Tabs
Rating:
0/5 (0 votes)
Fire lessons Tabs too difficult? Try these video lessons and learn fast
                Bassist: Chris Edwards
Tuning: Standard

Verse:

G|---------------------|    |---------------------|
D|---------------------|    |---------------------|
A|---------------------|    |-6-66-6-6------------|
E|-8-88-8-88-8-88-8-88-| x3 |---------6-8-88-8-88-|

G|---------------------|    |---------------------|
D|---------------------|    |---------------------|
A|---------------------|    |-6-66-6-6------------|
E|-8-88-8-88-8-88-8-88-|    |---------6-8-88-8-88-| x2

G|---------------------|    |---------------------|
D|---------------------|    |---------------------|
A|---------------------|    |-6-66-6-6------------|
E|-8-88-8-88-8-88-8-88-| x2 |---------6-8-88-8-88-|

G|---------------------|    |---------------------|
D|---------------------|    |---------------------|
A|---------------------|    |-6-66-6-6------------|
E|-8-88-8-88-8-88-8-88-|    |---------6-8-88-8-88-| x3

Chorus:

G|--------|--------|--------|--------|
D|--------|--------|--------|--------|
A|-----888|86666666|66666---|--------|
E|88888---|--------|-----666|88888888| x2

G|--------------8--8--8--8--8--8----------------------|
D|-10-10--------------------------------10--12--13--15|
A|--------888-6--6--6--6--6--6---88-------------------|
E|8--8--8--------------------------66--8--10--11--13--| x2

Verse:

G|---------------------|    |---------------------|
D|---------------------|    |---------------------|
A|---------------------|    |-6-66-6-6------------|
E|-8-88-8-88-8-88-8-88-|    |---------6-8-88-8-88-|

G|---------------------|
D|---------------------|
A|-6-66-6-6------------|
E|---------6-8-88-8-88-|

G|-------------------|-------------------|--------|
D|-------------------|-------------------|--------|
A|-------------------|-------------------|--------|
E|-4-44-6-66-8-8-8-8-|-4-44-6-66-3-3-3-3-|33333333|

Chorus:

G|--------|--------|--------|--------|
D|--------|--------|--------|--------|
A|-----888|86666666|66666---|--------|
E|88888---|--------|-----666|88888888| x2

G|--------------8--8--8--8--8--8----------------------|
D|-10-10--------------------------------10--12--13--15|
A|--------888-6--6--6--6--6--6---88-------------------|
E|8--8--8--------------------------66--8--10--11--13--| x2

no bass 2:34 - 2:50

Optional: That is synth part but you can play it for fun (2:42-2:50)

G|------------10--8--8--8--8--8--8-----------|
D|--10-10-10------------------------8--10-10-|
A|-----------8--6--6--6--6--6--6-------------|
E|-8--8--8------------------------6---8--8---|

Chorus again:

G|--------|--------|--------|--------|
D|--------|--------|--------|--------|
A|-----888|86666666|66666---|--------|
E|88888---|--------|-----666|88888888| x2

G|--------------8--8--8--8--8--8----------------------|
D|-10-10--------------------------------10--12--13--15|
A|--------888-6--6--6--6--6--6---88-------------------|
E|8--8--8--------------------------66--8--10--11--13--| x4

G|--------|--------|--------|--------|
D|--------|--------|--------|--------|
A|-----888|86666666|66666---|--------|
E|88888---|--------|-----666|88888888| x3

/  slide up
\  slide down
h  hammer-on
p  pull-off
~  let ring
            
Submit corrections

comments powered by Disqus
↑ Back to top | Kasabian Bass for Fire. Lyrics for acoustic guitar and electric guitar. Tablatures and chords are parodies/interpretations of the original songs. You may use it for private study, scholarship, research or language learning purposes only