» » »

Kasabian, Fire Tabs (ver.2)

Artists:  A B C D E F G H I J K L M N O P Q R S T U V W X Y Z # 

Fire Tabs (ver.2)

Kasabian Tabs
Rating:
0/5 (0 votes)
Fire lessons Tabs too difficult? Try these video lessons and learn fast
                Kasabian - Fire

my first tab!
couldn't find a good tab online for this awesome track yet so decided to post my own :)

if you've got any comments or you figure out a better way to play it email or msg me on twitter.

enjoy!

Verse
|-------------|-------------|-------------|-------------|-------------|
|-3----3-3----|-3----3-3----|-6----6-6----|-6----6-6----|-3----3-3----|
|-5----5-5----|-5----5-5----|-8----8-8----|-8----8-8----|-5----5-5----|
|-5----5-5----|-5----5-5----|-8----8-8----|-8----8-8----|-5----5-5----|
|-------------|-------------|-------------|-------------|-------------|
|-------------|-------------|-------------|-------------|-------------|

Chorus
|-------------|-------------|-------------|-------------|-------------|
|-------------|-------------|-------------|-------------|-------------|
|-5---5---5---|-10--10--10--|-8---8---8---|-10--10--10--|-8---8---8---|
|-5---5---5---|-10--10--10--|-8---8---8---|-10--10--10--|-8---8---8---|
|-3---3---3---|-8---8---8---|-6---6---6---|-8---8---8---|-6---6---6---|
|-------------|-------------|-------------|-------------|-------------|

|-------------|-------------|
|-------------|-------------|
|-10--10--10--|-5---5---5---|
|-10--10--10--|-5---5---5---|
|-8---8---8---|-3---3---3---|
|-------------|-------------|

Awesome little solo :D
timings probably off in this tab but just play along, it sounds about right to me

|-8-6-8-11-8--|----8--------|-------------|-------------|
|-------------|-11---11--8--|-8----8------|-------------|
|-------------|-------------|---10---10---|-7--3-5--3-5-|
|-------------|-------------|-------------|-------------|
|-------------|-------------|-------------|-------------|
|-------------|-------------|-------------|-------------|
            
Submit corrections

comments powered by Disqus
↑ Back to top | Kasabian Tabs for Fire. Lyrics for acoustic guitar and electric guitar. Tablatures and chords are parodies/interpretations of the original songs. You may use it for private study, scholarship, research or language learning purposes only