» » »

Themata Tabs (ver.1)

Artists:  A B C D E F G H I J K L M N O P Q R S T U V W X Y Z # 

Themata Tabs (ver.1)

Karnivool
Rating:
2/5 (2 votes)

Hard to play? Try these video lessons and learn fast.
                (Intro)
Themata by Louis Howe

intro 1
E------0---------0-2------0---------0-2------------------------------------|
B-4-4--0----4-4--3-3-4-4--0----4-4--3-3------------------------------------|
G-4-4--2----4-4--2-2-4-4--2----4-4--2-2------------------------------------|
D-4-4--2----4-4--0-0-4-4--2----4-4--0-0------------------------------------|
A-2-2--0----2-0------2-2--0----2-0-----------------------------------------|
E--------------------------------------------------------------------------|

intro 2- muted
E--------------------------------------------------------------------------|
B-------------------5-------4----------------------------------------------|
G-----4---5-4-----2-----2------4-------------------------------------------|
D--------------------------------------------------------------------------|
A-2-2---2-----2-2-----2---2---2--------------------------------------------|
E--------------------------------------------------------------------------|
            
Hard to play? Try these video lessons and learn fast. | Correct




comments powered by Disqus
↑ Back to top | Tablatures and chords are parodies/interpretations of the original songs. You may use it for private study, scholarship, research or language learning purposes only