» » »

Simple Boy Tabs (ver.1)

Artists:  A B C D E F G H I J K L M N O P Q R S T U V W X Y Z # 

Simple Boy Tabs (ver.1)

Karnivool
Rating:
4/5 (3 votes)

Hard to play? Try these video lessons and learn fast.
                ----------------------------------------------------------
----------------------------------------------------------

Tuning: B F# B G B e


0:27          "i'm high... above the world..."
e |------5~-----------------------/9---------------------|
B |----3-----------------------------10------------------|
G |--4----------------------------------11~--------------|
B |------------------------------------------------------|
F#|------------------------------------------------------|
B |------------------------------------------------------|

              "why should i feel pain..."
e |-------0~---------------------------------------------|
B |-----3------------------------------------------------|
G |---4--------------------------------------------------|
B |------------------------------------------------------|
F#|------------------------------------------------------|
B |------------------------------------------------------|

          "or feel at all..."
e |------------------------------------------------------|
B |-------7~---------------------------------------------|
G |-----4------------------------------------------------|
B |---0--------------------------------------------------|
F#|------------------------------------------------------|
B |------------------------------------------------------|

     "to be protected like...a simple boy..."
e |--------5~------------------------/9------------------|
B |------3------------------------------10---------------|
G |----4-----------------------------------11~-----------|
B |------------------------------------------------------|
F#|------------------------------------------------------|
B |------------------------------------------------------|

     "choose to let you down..."
e |-------0~---------------------------------------------|
B |-----3------------------------------------------------|
G |---4--------------------------------------------------|
B |------------------------------------------------------|
F#|------------------------------------------------------|
B |------------------------------------------------------|
        "begin to know..."
e |------------------------------------------------------|
B |-------7~---------------------------------------------|
G |-----4------------------------------------------------|
B |---0--------------------------------------------------|
F#|------------------------------------------------------|
B |------------------------------------------------------|

     "you're free to go..."
e |----------------------------------------------------|
B |----------------------------------------------------|
G |-----------6----------------------------------------|x2
B |--12--8\7----7/8---10-5-7---------------------------|
F#|----------------------------------------------------|
B |----------------------------------------------------|
1:04
e |----------------------------------------------------|
B |------3/5--77~--------------------------------------|
G |------2/4--99~--------------------------------------|
B |--5-5-3/5--88~--------------------------------------|
F#|--5-5-3/5--66~--------------------------------------|
B |--5-5-3/5-------------------------------------------|

1:11 - 1:40  repeat verse

1:40     "you're free to go..."
e |----------------------------------------------------|
B |----------------------------------------------------|
G |-----------6----------------------------------------|
B |--12--8\7----7/8---10-5-7---------------------------|
F#|----------------------------------------------------|
B |----------------------------------------------------|


solo
e |------------------------------------------------|
B |------------------------------------------------|
G |---14/16~---------------------------------------|
B |-----------5/7--10\9^\7--5/7~-7/10-10/12\9^\7---|
F#|------------------------------------------------|
B |------------------------------------------------|

e |-----------------------------------------------------------|
B |-----------------------------------------------------------|
G |--------------------14p13^\11-9/11\7^----------------------|
B |---12\10h12/15-14h5--------------------5/7-5\3--------5^^--|
F#|-----------------------------------------------5/7^-5------|
B |-----------------------------------------------------------|

3:10
e |-----------------------------|
B |-----7~---5~---3~----5~------|
G |---4----4----4-----4---------|x5
B |-----------------------------|
F#|-----------------------------|
B |-----------------------------|

play this a million times.
e |----------------------------------------------------|
B |----------------------------------------------------|
G |-----------6----------------------------------------|
B |--12--8\7----7/8---10-5-7---------------------------|
F#|----------------------------------------------------|
B |----------------------------------------------------|

outro
e |---10~---9~--7///14~-7///14~---10~-9~--12-14~--10~-9~-12-14~---|
B |---------------------------------------------------------------|
G |---------------------------------------------------------------|
B |---------------------------------------------------------------|
F#|---------------------------------------------------------------|
B |---------------------------------------------------------------|

e |--10~-9~-12-14~----------12~-9~--12-----|
B |-----------------12~-10~----------------|
G |----------------------------------------|
B |----------------------------------------|
F#|----------------------------------------|
B |----------------------------------------|


| /  slide up
| \  slide down
| h  hammer-on
| p  pull-off
| ~  vibrato
| +  harmonic
| x  Mute note
============================================================
            
Hard to play? Try these video lessons and learn fast. | Correct




comments powered by Disqus
↑ Back to top | Tablatures and chords are parodies/interpretations of the original songs. You may use it for private study, scholarship, research or language learning purposes only