>
 >
Themata 1

Themata 1 Guitar Tabs

Karnivool - Themata 1 chords, tabs, tablatures, lyrics

Guitar lessons | Add/correct | Request | Top 50 tabs Artists:  A B C D E F G H I J K L M N O P Q R S T U V W X Y Z 0-9

Themata 1 Guitar Tabs – Karnivool

CD, Sheet music, Poster

Do you like Themata 1? Share with your friends now
TabsTabs v2
-------------------------------------------------------------------------------
                             THEMATA - Karnivool
-------------------------------------------------------------------------------

Tuning: B F# b e g c

Intro
 c|---3--3--4------3--4--4--2--3--3--4------3--4--4--2-----------------------|
 g|---4--4--4------4--4--4--2--4--4--4------4--4--4--2-----------------------|
 e|---2--2--0------2--2--x--x--2--2--0------2--2--x--x-----------------------|
 b|---0--0--x------0--0--3--1--0--0--x------0--0--3--1-----------------------|
F#|---0--5--3------0--0--3--1--0--5--3------0--0--3--1-----------------------|
 B|---0--0---------0--0--3--1--0--0---------0--0--3--1-----------------------|

 c|----------------------------6\4p3p3p3-------4p--3p---3p4p-6\4-3-3-4-4-----|
 g|--4p4p5p4p2/9p5p8p4p2/8p9p5p---------4p5\4p2--5p--4\2----5----4-4-4-4-----|
 e|--------------------------------------------------------------------------|
 b|--------------------------------------------------------------------------|
F#|--------------------------------------------------------------------------|
 B|--------------------------------------------------------------------------|

 c|--------------------------------------------------------------------------2
 g|---------------------------------------------------5-9p5-----------------*|
 e|--------------------7----------------------------5-------5----------------|
 b|------4h7-------4h7---7p4------5h7/8\7p5-------5--------------------------|
F#|--5h6-------5h6-----------h5/6-----------3/5h6------------h6-------------*|
 B|--------------------------------------------------------------------------|

 c|--------------------------------------------------------------------------|
 g|---------------------------------------------------5---------4-4-4-4-4-4--|
 e|--------------------7----------------------------5---5-------2-2-2-2-2-2--|
 b|------4h7-------4h7---7p4------5h7/8\7p5-------5-------5-----0-0-0-0-0-0--|
F#|--5h6-------5h6-----------h5/6-----------3/5h6----------h6\3-0-0-0-0-0-0--|
 B|-------------------------------------------------------------0-0-0-0-0-0--|

 c|--------------------------------------------------------------------------|
 g|--------------------------------------------------------------------------|
 e|--------------------------------------------------------------------------|
 b|--------------------------------------------------------------------------|
F#|--5xxxxx3h5xxxxxx3h5xxxxxx3-6xx3x--xxxxx3h5xxxxxx3--xx6xx3xx--------------|
 B|---------------------------------\0----------------0--------1xx-----------|

Verse 1
 c|--------------------------------------------------------------------------|
 g|--------------------------------------------------------------------------|
 e|--------------------------------------------------------------------------|
 b|--------------------------------------------------------------------------|
F#|--5xxxxx3h5xxxxxx3h5xxxxxx3-6xx3x--xxxxx3h5xxxxxx3--xx6xx3xx6-------------|
 B|---------------------------------\0----------------0--------0/------------|

 c|--------------------------------------------------------------------------|
 g|--------------------------------------------------------------------------|
 e|--------------------------------------------------------------------------|
 b|------4-4x4---4-4x4---4-4x5--1------4-4x4---4-4x4---4-4x5-\1--------------|
F#|--5xxx5-5x5xxx5-5x5xxx5-5x6xx3x-5xxx5-5x5xxx5-5x5xxx5-5x6-\3--------------|
 B|-------------------------------\0-------------------------\1--------------|

 c|--------------------------------------------------------------------------2
 g|-------------------------------------------------------------------------*|
 e|--------------------------------------------------------------------------|
 b|--------------------------------------------------------------------------|
F#|--5xxxxx3h5xxxxxx3h5xxxxxx3-6xx3x--xxxxx3h5xxxxxx3--xx6xx3xx6------------*|
 B|---------------------------------\0----------------0--------0/------------|

 c|--------------------------------------------------------------------------|
 g|---------------------------------------------------5-9p5------------------|
 e|--------------------7----------------------------5-------5----------------|
 b|------4h7-------4h7---7p4------5h7/8\7p5-------5--------------------------|
F#|--5h6-------5h6-----------h5/6-----------3/5h6------------h6--------------|
 B|--------------------------------------------------------------------------|

 c|--------------------------------------------------------------------------|
 g|---------------------------------------------------5---------4-4-4-4-4-4--|
 e|--------------------7----------------------------5---5-------2-2-2-2-2-2--|
 b|------4h7-------4h7---7p4------5h7/8\7p5-------5-------5-----0-0-0-0-0-0--|
F#|--5h6-------5h6-----------h5/6-----------3/5h6----------h6\3-0-0-0-0-0-0--|
 B|-------------------------------------------------------------0-0-0-0-0-0--|

Chorus
 c|---4---4---4--3---3---3--0---0---0-----3h4p3------------------------------|
 g|---4---4---4--4---4---4--0---0---0--4--------4-2h4-4b5r4p2h4--------------|
 e|---0---0---0--2---2---2--0---0---0--2--------2----------------------------|
 b|---0---0---0--0---0---0--1---5---5--0--------0----------------------------|
F#|---5---5---5--0---0---0--3---3---3--0--------0----------------------------|
 B|---5---5---5--0---0---0-------------0--------0----------------------------|

 c|---4---4---4--3--x-3---3--0-0-4-0-0-0-------------------------------------|
 g|---4---4---4--4--x-4---4--0-0-0-0-0-0-------------------------------------|
 e|---0---0---0--2--x-2---2--0-0-0-0-0-0-------------------------------------|
 b|---0---0---0--0--x-0---0--1-1-1-5-5-5-------------------------------------|
F#|---5---5---5--0--x-0---0--3-3-3-3-6-6-------------------------------------|
 B|---5---5---5--0--x-0---0--------------------------------------------------|

 c|----------------------------6\4p3p3p3-------4p--3p---3p4p-----------------|
 g|--4p4p5p4p2/9p5p8p4p2/8p9p5p---------4p5\4p2--5p--4\2----5-2b~------------|
 e|--------------------------------------------------------------------------|
 b|--------------------------------------------------------------------------|
F#|--------------------------------------------------------------------------|
 B|--------------------------------------------------------------------------|

Verse 2
 c|--------------------------------------------------------------------------|
 g|--------------------------------------------------------------------------|
 e|--------------------------------------------------------------------------|
 b|--------------------------------------------------------------------------|
F#|--5xxxxx3h5xxxxxx3h5xxxxxx3-6xx3x--xxxxx3h5xxxxxx3--xx6xx3xx6-------------|
 B|---------------------------------\0----------------0--------0/------------|

 c|--------------------------------------------------------------------------|
 g|---------------------------------2-2--------------------------------------|
 e|---2-2-----2-2-----2-2---3-3-----0-0--------------------------------------|
 b|---0-0-----0-0-----0-0---1-1-----1-1--------------------------------------|
F#|---0-0-----0-0-----0-0---1-1-----3-3--------------------------------------|
 B|---0-0-----0-0-----0-0---1-1-----1-1--------------------------------------|

 c|-------------------------0-0----------------------------------------------|
 g|---4-4-----4-4-----4-4---0-0-----2-2--2-----------------------------------|
 e|---2-2-----2-2-----2-2---3-3-----0-0--0-----------------------------------|
 b|---0-0-----0-0-----0-0---1-1-----1-1--1--4h5p4----------------------------|
F#|---0-0-----0-0-----0-0---1-1-----3-3--3-------h6p5------------------------|
 B|---0-0-----0-0-----0-0---1-1-----1-1--1-----------------------------------|

 c|-------------------------0---0---0---0---0-/------------------------------|
 g|---4-4-----4-4-----4-4---0---0---2---2---2-/------------------------------|
 e|---2-2-----2-2-----2-2---3---3---0---0---0-/------------------------------|
 b|---0-0-----0-0-----0-0---1---1---1---1---1-/------------------------------|
F#|---0-0-----0-0-----0-0---1---1---3---3---3-/------------------------------|
 B|---0-0-----0-0-----0-0---1---1---1---1---1-/------------------------------|

 c|-------------------------0---0---0---0---0---3---3---3---3---3---3--------|
 g|---4-4-----4-4-----------0---0---2---2---2---4---4---4---4---4---4--------|
 e|---2-2-----2-2-----------3---3---0---0---0---2---2---2---2---2---2--------|
 b|---0-0-----0-0-----------1---1---1---1---1---0---0---0---0---0---0--------|
F#|---0-0-----0-0-----------1---1---3---3---3---0---0---0---0---0---0--------|
 B|---0-0-----0-0-----------1---1---1---1---1---0---0---0---0---0---0--------|

Chorus
 c|---4---4---4--3---3---3--0---0---0-----3/4\3------------------------------|
 g|---4---4---4--4---4---4--0---0---0--4--------4-2h4-4b5r4p2h4--------------|
 e|---0---0---0--2---2---2--0---0---0--2--------2----------------------------|
 b|---0---0---0--0---0---0--1---5---5--0--------0----------------------------|
F#|---5---5---5--0---0---0--3---3---3--0--------0----------------------------|
 B|---5---5---5--0---0---0-------------0--------0----------------------------|

 c|---4---4---4--3--x-3---3--0-0-4-0-0-0-------------------------------------|
 g|---4---4---4--4--x-4---4--0-0-0-0-0-0-4-----------------------------------|
 e|---0---0---0--2--x-2---2--0-0-0-0-0-0-2-----------------------------------|
 b|---0---0---0--0--x-0---0--1-1-1-5-5-5-0-----------------------------------|
F#|---5---5---5--0--x-0---0--3-3-3-3-6-6-0-----------------------------------|
 B|---5---5---5--0--x-0---0--------------0-----------------------------------|

 c|----------------------------6\4p3p3p3-------4p--3p---3p4p-----------------|
 g|--4p4p5p4p2/9p5p8p4p2/8p9p5p---------4p5\4p2--5p--4\2----5-2b~-----------*|
 e|--------------------------------------------------------------------------|
 b|--------------------------------------------------------------------------|
F#|-------------------------------------------------------------------------*|
 B|--------------------------------------------------------------------------|

 c|--------------------------------------------------------------------------|
 g|-------------------------------------------------------------------------*|
 e|--------------------------------------------------------------------------|
 b|--------------------------------------------------------------------------|
F#|--5xxxxx3h5xxxxxx3h5xxxxxx3-6xx3x--xxxxx3h5xxxxxx3--xx6xx3xx6------------*|
 B|---------------------------------\0----------------0--------0/------------|

 c|--------------------------------------------------------------------------|
 g|---------------------------------2-2--------------------------------------|
 e|---2-2-----2-2-----2-2---3-3-----0-0--------------------------------------|
 b|---0-0-----0-0-----0-0---1-1-----1-1--------------------------------------|
F#|---0-0-----0-0-----0-0---1-1-----3-3--------------------------------------|
 B|---0-0-----0-0-----0-0---1-1-----1-1--------------------------------------|

 c|-------------------------0-0----------------------------------------------|
 g|---4-4-----4-4-----4-4---0-0-----2-2--2-----------------------------------|
 e|---2-2-----2-2-----2-2---3-3-----0-0--0-----------------------------------|
 b|---0-0-----0-0-----0-0---1-1-----1-1--1--4h5p4----------------------------|
F#|---0-0-----0-0-----0-0---1-1-----3-3--3-------h6p5------------------------|
 B|---0-0-----0-0-----0-0---1-1-----1-1--1-----------------------------------|

 c|-------------------------0---0---0---0---0-/------------------------------|
 g|---4-4-----4-4-----4-4---0---0---2---2---2-/------------------------------|
 e|---2-2-----2-2-----2-2---3---3---0---0---0-/------------------------------|
 b|---0-0-----0-0-----0-0---1---1---1---1---1-/------------------------------|
F#|---0-0-----0-0-----0-0---1---1---3---3---3-/------------------------------|
 B|---0-0-----0-0-----0-0---1---1---1---1---1-/------------------------------|

 c|-------------------------0---0---0---0---0---3---3---3---3---3---3--------|
 g|---4-4-----4-4-----------0---0---2---2---2---4---4---4---4---4---4--------|
 e|---2-2-----2-2-----------3---3---0---0---0---2---2---2---2---2---2--------|
 b|---0-0-----0-0-----------1---1---1---1---1---0---0---0---0---0---0--------|
F#|---0-0-----0-0-----------1---1---3---3---3---0---0---0---0---0---0--------|
 B|---0-0-----0-0-----------1---1---1---1---1---0---0---0---0---0---0--------|

 c|---4---4---4--3---3---3--0---0---0-----3/4\3------------------------------|
 g|---4---4---4--4---4---4--0---0---0--4--------4-2h4-4b5r4p2h4--------------|
 e|---0---0---0--2---2---2--0---0---0--2--------2----------------------------|
 b|---0---0---0--0---0---0--1---5---5--0--------0----------------------------|
F#|---5---5---5--0---0---0--3---3---3--0--------0----------------------------|
 B|---5---5---5--0---0---0-------------0--------0----------------------------|

 c|---4---4---4--3--x-3---3--0---0---0-----3/4\3---------3-4-6----------------|
 g|---4---4---4--4--x-4---4--0---0---0--4--------4-2-4-5----------------------|
 e|---0---0---0--2--x-2---2--0---0---0--2--------2----------------------------|
 b|---0---0---0--0--x-0---0--1---5---5--0--------0----------------------------|
F#|---5---5---5--0--x-0---0--3---3---3--0--------0----------------------------|
 B|---5---5---5--0--x-0---0-------------0--------0----------------------------|

 c|---7---7---7--3--x-3--x-3-x-4-4-0-0-0-0-4-4-0-0-0------------------------|
 g|---9---9---9--4--x-4--x-4-x-0-0-0-0-0-0-0-0-0-0-0------------------------|
 e|---x---x---x--2--x-2--x-2-x-0-0-0-0-0-0-0-0-0-0-0------------------------|
 b|---5---5---5--0--x-0--x-0-x-5-5-5-5-5-5-5-5-5-5-5------------------------|
F#|---5---5---5--0--x-0--x-0-x-3-3-3-6-6-3-3-3-3-6-6------------------------|
 B|---5---5---5--0--x-0--x-0-x----------------------------------------------|

Outro
 c|----------------------------6\4p3p3p3-------4p--3p---3p4p-----------------|
 g|--4p4p5p4p2/9p5p8p4p2/8p9p5p---------4p5\4p2--5p--4\2----5-2b~-----------*|
 e|--------------------------------------------------------------------------|
 b|--------------------------------------------------------------------------|
F#|-------------------------------------------------------------------------*|
 B|--------------------------------------------------------------------------|

 c|----------------------------6\4p3p3p3-------4p--3p---3p4p--6\4------------|
 g|--4p4p5p4p2/9p5p8p4p2/8p9p5p---------4p5\4p2--5p--4\2----5----------------|
 e|--------------------------------------------------------------------------|
 b|--------------------------------------------------------------------------|
F#|--------------------------------------------------------------------------|
 B|--------------------------------------------------------------------------|

 c|---3--3--3--4------3--4--4--2--------------------------------------------||
 g|---4--4--4--4------4--4--4--2--------------------------------------------||
 e|---2--2--2--0------2--2--x--x--------------------------------------------||
 b|---0--0--0--x------0--0--3--1--------------------------------------------||
F#|---0--0--5--3------0--0--3--1--------------------------------------------||
 B|---0--0--0---------0--0--3--1--------------------------------------------||


| /  slide up
| \  slide down
| h  hammer-on
| p  pull-off
| b  bend
| r  release
| ~  vibrato
| +  harmonic
| x  Mute note
===============================================================================





Comments


Popular Karnivool tabs & chords
All I Know 3 Bass Tabs
Goliath Bass Tabs
C.O.T.E Tabs
C.O.T.E 1 Tabs
Deadman 1 Tabs
Roquefort Intro Tabs
Sewn And Silent Tabs
Shutterspeed Tabs
Success Intro Tabs
Themata Intro Tabs


Song lyrics



↑ Back to top | Tablatures and chords are parodies/interpretations of the original songs. You may use it for private study, scholarship, research or language learning purposes only
© 2014 AZChords.com Contact us | Privacy policy | DMCA | Add/correct tabs | Request tabs | Top 50 tabs