>
 >
Deadman 1

Deadman 1 Guitar Tabs

Karnivool - Deadman 1 chords, tabs, tablatures, lyrics

Guitar lessons | Add/correct | Request | Top 50 tabs Artists:  A B C D E F G H I J K L M N O P Q R S T U V W X Y Z 0-9

Deadman 1 Guitar Tabs – Karnivool

CD, Sheet music, Poster

Do you like Deadman 1? Share with your friends now
TabsTabs v2
------------------------------------------------------------
                  Deadman solo - Karnivool
------------------------------------------------------------

The Solo!

Tuning: DAFDAD

4:46
D|-------------------------------------|
A|--8/10/12-----8/10/12------7-8\5-----|
F|-----------9-----------9-7-----------|
D|-------------------------------------|
A|-------------------------------------|
D|-------------------------------------|

D|------------------------------------|
A|--------------------3-5-2-----------|
F|--4-2h4-----2/4-----------2/5-------|
D|--------0-------0-------------3-5^--|
A|------------------------------------|
D|------------------------------------|

5:05
D|-------------------------------------|
A|-------------------------------------|
F|--0h2h4/7-/7--0h2h4p2-0h2h4p2--------|
D|------------------------------2-0----|
A|-------------------------------------|
D|-------------------------------------|

D|---------------------------------------------------|
A|----------------3----------------------------------|
F|--0h2h4p2-0h2h4(4)---0h2h4p2-0h2h4/7/9\6\2-5p0-4~--|
D|---------------------------------------------------|
A|---------------------------------------------------|
D|---------------------------------------------------|
5:20
D|----------------------------|
A|----------------------------|
F|-----6h7--/9-----6h7--/9----|
D|--0-----0------0----0-------|
A|----------------------------|
D|----------------------------|
    .     .     .     . 
D|------------------------|
A|------7-8---------------|
F|--9-7-----7-6\2-5p4~----|
D|------------------------|
A|------------------------|
D|------------------------|
5:32
D|----------------------------------------------------|
A|----------------------------------------------------|
F|--12\9~------12\9-0-9/11~-----12\9-0-11\7-----------|
D|----------12----------------12----------------------|
A|-------------------------------------------8p7\3----|
D|----------------------------------------------------|
5:43
D|-----------------------------------|
A|--7-8-12p8-----10-----8\7~---------|
F|-----------------------------------|
D|-----------7h8----8\7--------------|
A|-----------------------------------|
D|-----------------------------------|
5:48
D|----------------------------|
A|--7-------------------8~----|
F|--------12p11\7~------7~----|
D|----7/8---------------------|
A|----------------------------|
D|----------------------------|
5:53
D|--------------------------|
A|--------------------------|
F|------12\11---------------|
D|--8-----------------------|
A|------------10\8----------|
D|--------------------------|
5:56
D|--------------------------|
A|--------------------------|
F|---9------12/14~~~--------|
D|--------------------------|
A|-----8/10-----------------|
D|--------------------------|



**********************************

| /   slide up
| \   slide down
| h   hammer-on
| p   pull-off
| ~   vibrato
| +   harmonic
| x   Mute note
| b   Bend
| pb  Pre-bend
| br  Bend release
| pbr Pre-bend release
| brb Bend release bend

************************************





Comments


Popular Karnivool tabs & chords
All I Know 4 Bass Tabs
Change Bass Tabs
The Caudal Lure Bass Tabs
The Medicine Wears Off Bass Tabs
Cote Chords
Deadman Tabs
Illlumine Tabs
Roquefort 1 Tabs
Sleeping Satellite Tabs
Themata Tabs


Song lyrics



↑ Back to top | Tablatures and chords are parodies/interpretations of the original songs. You may use it for private study, scholarship, research or language learning purposes only
© 2014 AZChords.com Contact us | Privacy policy | DMCA | Add/correct tabs | Request tabs | Top 50 tabs