» » »

Karnivool, Deadman Tabs (ver.1)

Artists:  A B C D E F G H I J K L M N O P Q R S T U V W X Y Z # 

Deadman Tabs (ver.1)

Karnivool Tabs
 Rating:
4.2/5 (5 votes)
Deadman lessons Tabs too difficult? Try these video lessons and learn fast
                -------------------------------------------------------
-------------------------------------------------------

This isn't the whole song. will add the solo later.

Tuning: DADFAD
CAPO 5
D|----------|
A|---8~-----|
F|----------|
D|----------|
A|---5~-----|
D|----------|
Main Riff
D|----------------------------------------|
A|----------------------------------------|
F|-----7-----7----7------6-----6-----6----|
D|-000---7-0---7-0---000---5-0---5-0------|
A|----------------------------------------|
D|----------------------------------------|
   ...     .     .   ...     .     .
D|-------------------------------------------|
A|-------------------------------------------|
F|------5-----5-----5-----4----------0h2-----|
D|--000---5-0---5-0---000---3--0h2h3-----2---|
A|-------------------------------------------|
D|-------------------------------------------|
    ...     .     .   ...    

"oh no...this cant be..."
D|---------------------------|
A|-------------------3/5~----|
F|-------------------2/4~----|
D|---------------------------|
A|--5~---------------3/5~----|
D|---------------------------|
1:47
guitar 1
D|------------------------------------------|
A|------------------------------------------|
F|------------------------------------------|
D|-------2p0------2p0------2p0------3p2-----|
A|--0h33-----0h33-----0h33-----0h33---------|
D|------------------------------------------|
guitar 2  (played heaps)
D|-------------------|
A|---3--0---3--0-----|
F|---2--0---2--0-----|
D|---x--x---x--x-----|
A|---3--3---3--3-----|
D|-------------------|
"you must have been so suprised to see"
D|------------------------------------------|
A|------------------------------------------|
F|------------------------------------------|
D|-------2p0------2p0------2p0------3p2-----|
A|--0h33-----0h33-----0h33-----0h33---------|
D|------------------------------------------|
2:31
D|------------------------------------------|
A|--88-5-5--77-3-3--88-5-5--77--1010--------|
F|--77-4-4--66-2-2--77-4-4--66--9-9---------|x2
D|--xx-x-x--xx-x-x--xx-x-x--xx--x-x---------|
A|--88-5-5--77-3-3--88-5-5--77--1010--------|
D|------------------------------------------|
2:48
D|-------------------|
A|---3--0---3--0-----|
F|---2--0---2--0-----|
D|---x--x---x--x-----|
A|---3--3---3--3-----|
D|-------------------|

D|---------------------------|
A|---------3~---------2~-----|
F|---------------------------|
D|------3----------3---------|
A|----5----------5-----------|
D|--0----------0-------------|

D|---------------------|
A|---------3~----------|
F|---------------------|
D|------3--------------|
A|----5----------------|
D|--3----------5~------|

Solo coming soon...


| .  palm mute
| /  slide up
| \  slide down
| h  hammer-on
| p  pull-off
| ~  vibrato
| +  harmonic
| x  Mute note
===========================================================
            
Submit corrections

comments powered by Disqus
↑ Back to top | Karnivool Tabs for Deadman. Lyrics for acoustic guitar and electric guitar. Tablatures and chords are parodies/interpretations of the original songs. You may use it for private study, scholarship, research or language learning purposes only