>
 >
All I Know 3

All I Know 3 Bass Tabs

Karnivool - All I Know 3 chords, tabs, tablatures, lyrics

Guitar lessons | Add/correct | Request | Top 50 tabs Artists:  A B C D E F G H I J K L M N O P Q R S T U V W X Y Z 0-9

All I Know 3 Bass Tabs – Karnivool

CD, Sheet music, Poster

Do you like All I Know 3? Share with your friends now
Bass TabsBass Tabs v2Bass Tabs v3Bass Tabs v4Tabs
All I Know tabbed for 6 string bass. Karnivool uses an alternate tuning on bass 
and guitar, but this has been done for standard tuning. If you have a 4 or 5 
string this tab (and any of my other Karnivool ones :D) is pretty easily 
transcribed, especially for a 5 string. 


                                    1,2,3____
All I Know – 4.53/4.53                      |
C|------------------14--------12--------11- |
G|09-11-9-12-9-11-9----9-11-9----9-11-9---- |
D|-----------------------------------------O|
A|----------------------------------------- |
E|-----------------------------------------O| X4
B|----------------------------------------- | 

                               1,2,3___4__
     “this is my sense of reality…”    |  |
C|--| -------------------------------- |--| ----------------------------- |
G|--| ---------------7---------------- |--| ------------7---------------- |
D|9-|o----------------------10------9-o|--|o-----5-------------10------9-o|
A|--| -------------------------------- |2-| 0--0---0--0---0--0----0--0--- |
E|--|o0-x-x-0-3-0--0---0--0----0--0---o|--|o-----------------------------o| 
B|--| -------------------------------- |--| ----------------------------- | 
 
                               1___2__   
                                    |  |
C| -------------------------------- |--|-----------------------------|
G| ---------------7---------------- |--|------------7----------------|
D|o----------------------10------9-o|--|-----5-------------10------9-|
A| -------------------------------- |2-|0--0---0--0---0--0----0--0---|
E|o0-x-x-0-3-0--0---0--0----0--0---o|--|-----------------------------| 
B| -------------------------------- |--|-----------------------------| 

C| ----------------------------------- |
G| ----------------------------------- |
D|o-----------------------------------o|
A| ---------------5-7----------------- |                                    
E|o0-x-x-0-3-0--0---0--0--0-x-x-0-7\--o| 
B| ----------------------------------- | 

“Are you with me…”
C|------------------------------------------------------|
G|------------------------------------------------------|
D|------------------------------------------------------|
A|--------------------------------------2-------------2-|
E|---------------------3---5--------------5--5--5-3-5---| 
B|1--1--1--1-3-5--5--5---5---3--3--3--3-----------------| 

C|--------------------------------------------------------|
G|--------------------------------------------------------|
D|--------------------------------------------------------|
A|--------------------------------------------------------|
E|-----------3---------3---5------------3-5--5--5-x-x-5-3-| 
B|1--1--1--1---5--5--5---5---3--3--3--3-------------------| 

C|-------------------------------------------------------|
G|-------------------------------------------------------|
D|-------------------------------------------------------|
A|-----------------------------------------------------5-|
E|-----3----------------3----------------3---------------| 
B|5--5---5--5-3-5--5--5---5--5-3-5--5--5---5--5-3-5--5---| 

                               1,2,3___4__                           1___2__
     “we keep falling free of gravity…”|  |                               ||
C|--| -------------------------------- |--| ----------------------------- ||
G|--| ---------------7---------------- |--| ------------7---------------- ||
D|9-|o----------------------10------9-o|--|o-----5-------------10------9-o||
A|--| -------------------------------- |2-| 0--0---0--0---0--0----0--0--- ||
E|--|o0-x-x-0-3-0--0---0--0----0--0---o|--|o-----------------------------o||
B|--| -------------------------------- |--| ----------------------------- ||

2:21
C|--------------------------7-----------------------------------------------|
G|----9--7-9--7-9--7-9--7-9---9-9--7-9--7-9--7-9--9-----7-9---9--7-9--7-9--7|
D|--9-----------------------------------------------7-9---------------------|
A|7---------------------------------------------------------7---------------|
E|--------------------------------------------------------------------------|
B|--------------------------------------------------------------------------|

C|--------7---------------------------------------------------------------|
G|-9--7-9---9-9--7-9--7-9--7-9--9-----7-----------------------------------|
D|--------------------------------7-9---7--7---7--7-7-7-------------------|
A|-------------------------------------------------------------------10---|
E|-------------------------------------------------------8--8--10-12------| 
B|------------------------------------------------------------------------| 
           
                    1,2,3 4_____
                         |
C| --------------------- |------------------|
G| --------------------- |------------------|
D|o---------------------o|------------------|
A| --------------------- |----5-------------|
E|o-----------------3-3-o|------7-7-5-7-7-7-|
B| 5--5--5-5--0-3-5----- |3-5---------------|

C|------------------------------------------------------------------|
G|------------------------------------------------------------------|
D|------------------------------------------------------------------|
A|------------------------------------------------------------------|
E|-----------------3-3--------------3-5-3-----------------------3-3-| 
B|5--5--5-5--0-3-5-----5--5--5-5--3--------5--5-5-5--5-5--0-3-5-----| 

                                                           “Let’s go higher…”
C|----------------------------------------------------------------------|
G|----------------------------------------------------------------------|
D|----------------------------------------------------------------------|
A|--------------5-------------------------------------------------------|
E|---3----3-3-3---3-3-5-5-3------------------3-3------------------------| 
B|5----5--------------------5--5--5-5--0-3-5-----5--5-5-5--5-5-5-5-5----| 

C|-------------------------------------------------------|
G|-------------------------------------------------------|
D|-------------------------------------------------------|
A|---------------------------5-----5---------------------|
E|---------------3-5-x-x---------------5-5-3-3-3-5-5-3-2-| 
B|5--5--5-5-5--5---------3-3---3-3---3-------------------| 

3.03          “This is the sound of your…”
C|-----------------------------------------------------------------|
G|-----------------------------------------------------------------|
D|-----------------------------------------------------------------|
A|-----------------------------------------------------------------|
E|--------------3--------------------------------------------------| 
B|5--555--5-5--5-5--5--555--33333333333-5-5-5--5-55-5--5-33333333--|

      “It’s backwards it makes no sense…”
C|-------------------------------------------------------------------------|
G|-------------------------------------------------------------------------|
D|-------------------------------------------------------------------------|
A|-----------5----------------5--------------------5-----------------------|
E|--------7----------------7--------------------7---------------3----------|
B|5----5--------3--5----5--------3--5--8h--5-5-------x33--5--5-----5--5-5-5|

                           “Say it once more…”
C|-------------------------------------------------------------------------|
G|-------------------------------------------------------------------------|
D|-------------------------------------------------------------------------|
A|-------------------------------------------------------------------------|
E|-3--3--3-3-------------------------------------------------5--5-5-5--7-5-|
B|5----------3--3-3-3-3-3-1--1-1-1--1/-5---5--5-5-3---3---3----------------|

C|---------| ---------------------------------------------------------------|
G|---------| ---------------------------------------------------------------|
D|---------|o---------------------------------------------------------------|
A|---------| ---------------------------------------------------------------|
E|7-5-7h-7-|o8--x8--8-8-8--8---------------------------------5--5--5-5-7-5-7|
B|---------| ----------------5--x5--5-5-5--5-3--x3--3-3-3--3----------------|

C|--- |
G|--- |
D|---o|
A|--- |
E|-7-o| 
B|--- | 2nd time is a slight variation, but more or less the same. I’ve only included 1st time.

C|--------------------------------------------------------------------------|
G|--------------------------------------------------------------------------|
D|--------------------------------------------------------------------------|
A|------7-----5-------------------------------------------------------------|
E|8-----------------5-----8-----------------5--3--8-----------------8-------|
B|------------------------------5-----3-----------------5-----3-----------5-|

C|----------------------||
G|----------------------||
D|----------------------||
A|----------------------||
E|----------5-----------||
B|----3-----------------||





Comments


Popular Karnivool tabs & chords
Goliath Bass Tabs
The Caudal Lure Bass Tabs
All I Know Tabs
Fade Tabs
Float Tabs
Illlumine Tabs
Mauseum Tabs
Shutterspeed Tabs
Simple Boy Tabs
Sleeping Satellite 2 Tabs


Song lyrics



↑ Back to top | Tablatures and chords are parodies/interpretations of the original songs. You may use it for private study, scholarship, research or language learning purposes only
© 2014 AZChords.com Contact us | Privacy policy | DMCA | Add/correct tabs | Request tabs | Top 50 tabs