» » »

All I Know Bass tabs (ver.1)

Artists:  A B C D E F G H I J K L M N O P Q R S T U V W X Y Z # 

All I Know Bass tabs (ver.1)

Karnivool
Rating:
1/5 (4 votes)

Hard to play? Try these video lessons and learn fast.
                -------------------------------------------------------------------------------
-------------------------------------------------------------------------------


Tuning:Standard (EADG)


Hey guys,

This is edited because it was completely wrong

Intro: (Jon actually plays this with harmonics)

G|----------------------19----------17---------16----|
D|-14-17-14-17-14-17-14---14-17-14----14-17-14-------|
A|---------------------------------------------------|
E|---------------------------------------------------| x4


Verse (slapped)

G|----------------7--------5--------4----|
D|-------5-------------------------------|
A|---------------------------------------|
E|--0--0-----0--0----0--0-----0--0-------|


Verse(variation)
G|----------------7--------5--------4----|
D|-------5-------------------------------|
A|--0--0-----0--0-----0--0-----0--0------|
E|---------------------------------------|



Chorus

G|-----------------------------------------------------|
D|-----------------------------------------------------|
A|----3--3--3--3-5-7--7--7--7--5--5--5--5--------------|
E|-----------------------------------------5--5--5--5--|
            
Hard to play? Try these video lessons and learn fast. | Correct




comments powered by Disqus
↑ Back to top | Tablatures and chords are parodies/interpretations of the original songs. You may use it for private study, scholarship, research or language learning purposes only