» » »

Narda Tabs (ver.2)

Artists:  A B C D E F G H I J K L M N O P Q R S T U V W X Y Z # 

Narda Tabs (ver.2)

Kamikazee
Rating:
0/5 (0 votes)

Tabs too difficult? Try these video lessons and learn fast.
                15 years old,Montalban Rizal
       09229015724(Sun Cell)                         

Notes:Kayo na nga palang bahala jan sa mga plucking at number ng strumming.
     Hindi ako maxadong sure jan sa mga lead parts pero ok lang naman nung
     sinubukan ko!!hehe..Paki pakinggan nyo na lng ng maige para makuha nyo
     First tab ko nga pala ito!Kung may mali o kulang,kayo ng bahalang mag-
     dagdag at ,mag-tama!!Puwede nyo ring lait-laitin ito!!hehe..Kung may
     reklamo o commento,mag Post kayo sa Comments,PM,Message s Friendster,
     o kya Text nyo na lang ako!!Para nga pala ito sa crush ko na si Sheryl
     (S5)ng NSDAPS San Mateo Rizal SY 2005-2006!!!Peace V and ROCK ON \;;/,

     
Gtr.Legends
~ - LET IT RING
x - DEAD STRING
. - PALM MUTING

Chords for Acoustic:
Intro prt.1,Verse and Bridge prt.1 G(PLUCKING)
Intro prt.2 and Outro D,B,G,A,B,C#
Pre-Chorus,Chorus and Bridge prt.2 D,B,G,A

Tuning:Standard

Intro prt 1:
G
e-----0----0---0----------0----0---0-----------0----0-----0----|
B------3----3---3----------3----3---3-----------3----3-----3---|
G--------------------------------------------------------------|
D-0-0----0----0------------------------------------------------|
A---------------------2-2----2--------2------------------------|
E----------------------------------------3-3-3----3-----3------|
  .

e---------0---2~-------|                     
B----------3--0~-------|                     
G----------------------|      
D----------------------|                     
A---0-0-0--------------|
E-3--------------------|

Intro prt 2:
Gtr 1
e----------------------------------------------------------|
B----------------------------------------------------------|  
G-x--77777777777777777777777777777777--9999--1111--9999----|  
D-x--xxxxxxxxxxxxxxxxxxxxxxxxxxxxxxxx--xxxx--xxxx--xxxx----| 1x   
A-x--55555555555555555555555555555555--7777--9999--7777----|  
E-x--------------------------------------------------------|

Gtr.2
D,B,G,A,B,C#m
e----------------------------------------------------------|
B----------------------------------------------------------| 
G---777777777--444444444-----------------------------------| 2x  
D---777777777--444444444-0-5555555--7777777--9999--1111----|  
A---555555555--222222222-0-5555555--7777777--9999--1111----|  
E------------------------0-3333333--5555555--7777--9999----|

Gtr 1 Lead:
e---------------------------|
B---------------------------|  Play This
G---999-777-999-777-9-7777--|  Until 
D---------------------------|  Verse
A---------------------------|
E---------------------------|

Verse:
Gtr.1
G                                                                   
e-----0----0---0----0--0----------0----0----0----0---0---------|  
B------3----3---3----3---3---------3----3----3----3---3--------|  
G--------------------------------------------------------------|  
D---0----0----0---0--------------------------------------------|  
A-------------------------------2----2----2----2---------------|  
E--------------------------------------------------------------|  

e----0----0-----0----0---0------0-----0------3-----2----3-2-0--|
B-----3----3-----3----3---3------3-----3------0-----0----------|
G--------------------------------------------------------------|
D--------------------------------------------------------------|
A-----------------------------0-----0--------------------------|
E--3----3----3-----3-------------------------------------------|


Gtr.2(Fill Lead)
e---------------      ----------------------------|
B---------------      ----------------------------|
G-777-666------- 3x   --7777-6666--99999----------|
D--------------- Then ----------------------------|
A---------------      ----------------------------|
E---------------      ----------------------------|

Pre-Chorus:
D,B,G,A
e-------------------------------------------------|
B-------------------------------------------------|
G-777777777--444444444----------------------------|
D-777777777--444444444--5555555--7777777777777----|
A-555555555--222222222--5555555--7777777777777----|
E-----------------------3333333--5555555555555----|
  .........  .........  .......  .............

Chorus:Play the intro prt 2 w/lead:
Repeat Verse:
Repeat Pre-Chorus:
Repeat Chorus: 

Bridge prt.1:Play the Intro prt.1

Bridge prt.2:
Gtr 1
Tumalon kaya ako sa bangin.....
D,B,G,A
e-----------------------------------------------------|
B-----------------------------------------------------|
G--7---7777777--444444444-----------------------------|
D--7---7777777--444444444--55555555555----777777777---|
A--5---5555555--222222222--55555555555----777777777---|
E--------------------------33333333333----555555555---|
   .   .......  .....           ......    .........

Darating kaya,sa dami ng iyong ginagawa...
D,B,G,A
e-----------------------------------------------------|
B-----------------------------------------------------|
G---7777777--444444444--------------------------------|
D---7777777--444444444--55555555555----7~-777777------|
A---5555555--222222222--55555555555----7~-777777------|
E-----------------------33333333333----5~-555555------|

Repeat the Pre-chorus:
Repeat the Chorus w/lead 2x:

The Last Chord is D,let it ring~

End..

Lyrics by forget_013

Verse 1:
Tila ibon kung lumipad
Sumabay sa hangin ako'y napatingin
Sa dalagang nababalot ng hiwaga

Pre-Chorus prt.1:
Mapapansin kaya
Sa dami ng iyong ginagawa
Kung kaagaw ko lahat
May pag-asa bang makilala ka

Pre-Chorus prt.2:
Awit na nananawagan
Baka sakaling napakikinggan
Pag-ibig na pala-isipan
Sa kanta na lang idadaan

Chorus:
Nag-aabang sa langit
Sa mga ulap sumisilip
Sa likod ng mga tala
Kahit sulyap lang Darna

Verse 2:
Ang suwerte naman ni Ding
Lagi ka nyang kapililng
Kung ako sa kanya niligawan na kita

Repeat pre-Chorus prt.1 and prt.2:
Repeat Chorus:

Bridge:
Tumalon kaya ako sa bangin
Para lang iyong sagipin
Ito ang tanging paraan para mayakap ka

Repeat pre-Chorus prt.1 and prt.2
Repeat Chorus:

Enjoi..

   I would like to greet my f*ckin HORNY friends;Ram,Andrei,Louis,
Migs,Geoffrey,Roi,& Nath Ahaha...My Band Mates;Edy,Dino,Jiro,Mik2,
Andrei and Aeroll(Padre Garotte),The DOTA ALL-STARS of NSDAPS San 
Mateo Rizal,The Tower RED Records for nothing,Sa mga ka-CSTRIKE at
ka GB ko,Ung mga frndsz ko sa Montalban and my Luv;Cesz!!nyahaha...
V and \;;/,
            
Tabs too difficult? Try these video lessons and learn fast.




comments powered by Disqus
↑ Back to top | Tablatures and chords are parodies/interpretations of the original songs. You may use it for private study, scholarship, research or language learning purposes only