>
 >
Discoskwela

Discoskwela Guitar Tabs

Kamikazee - Discoskwela chords, tabs, tablatures, lyrics

Guitar lessons | Add/correct | Request | Top 50 tabs Artists:  A B C D E F G H I J K L M N O P Q R S T U V W X Y Z 0-9

Discoskwela Guitar Tabs – Kamikazee

CD, Sheet music, Poster

Do you like Discoskwela? Share with your friends now
Bass TabsTabs
Album:Maharot
              09229015724(Sun Cell)


Gtr.Legends:
/\ - SLIDE
~  - LET IT RING
.  - PALM MUTING

Gtr.Tuning:Standard(Normal)

Intro prt.1:
e|----------------------------------      --------------|
B|---------------------------------- 2x   --------------|
G|----------------------2/4\2/4\2--- Then --------------|
D|-444-------------444--------------      --7777-9999---|
A|-222--1/2\1/2\1--222--------------      --5555-7777---|
E|----------------------------------      --------------|

Intro prt.2:
Listen well in this prt.
e|-----------------------------------------------------------------------|
B|-----------------------------------------------------------------------|
G|-----------------------------------------------------------------------|
D|-44-3-4--7777-9999---44-3-4--3-44-3-4---44-3-4--777-999---44-3-4--4~---|
A|-22-1-2--5555-7777---22-1-2--1-22-1-2---22-1-2--555-777---22-1-2--4~---|
E|------------------------------------------------------------------2~---|

Verse 1:                                  
Pareho bang kaliwa ang mga paa...       Huwah-huwah....
e|--------------------------------      -------------------------|
B|--------------------------------      -------------------------|
G|-------------------------------- Then -------------------------|
D|-3-4-3-4---3-4-3-4--7777--9999--      --7777--9999--11111111---|
A|-1-2-1-2---1-2-1-2--5555--7777--      --5555--7777---9-9-9-9---|
E|--------------------------------      -------------------------|
                                          ....  ....   . . . .

Chorus 1:Play Intro prt.2
Yeah,,may marmle na class room at red na carpet...

Verse 2:Play Verse 1
Pati ba kembot mo ay kulang pah...

Chorus 2:Play Intro prt.2
Yeah,ang mga nag-tuturo dito...

Bridge prt.1
Gtr.1:Pedal on(PEDAL WAH-WAH)     Gtr.2 Enters:
e|--------------------------      ----------------------|
B|--------------------------      ----------------------|
G|--------------------------      ----------------------|
D|--xxxxxxxxxxxxxxxxxxxxxx--      --7~---7~---7~---7~---|
A|--xxxxxxxxxxxxxxxxxxxxxx--      --7~---7~---7~---7~---|
E|--xxxxxxxxxxxxxxxxxxxxxx--      --5~---5~---5~---5~---|

Bridge prt.2:(Strum up and down)
e|-------------------------------------------|
B|-------------------------------------------| Repeat
G|-------------------------------------------| 4x
D|-------------------------------------------|
A|----------------------------------555555---|
E|-55555--33333-22222---55555-88888----------|

Repeat Intro prt.1:

Chorus 3:Play intro prt.2

Last Chords:
e|---------|
B|---------|
G|---------|
D|-4-3-4---|
A|-2-1-2---|
E|---------|
   . . .

End...
 
  I would like to greet first offcourse my ONLY ONLY ONE,then;my relatives,my
friends on Montalban(Brgy.Balite Espiritu Subd.),My traitor friends in our school
NSDAPS San Mateo Rizal,Cocklosas,Cocklisay.Cocktabijan,Cockpistrano,Cockyatano,Cockruz,
Franciscock,Picock,Fuckmittan,Redick,Simbulbulan,Frondosuso,Bayagin,Titesta,Aldick,and many
moore,our band club(COMBO-RATS),Project X,To all my txt mates and other companie,Red Porn Records,
My friends in YM and Friendster,and most of all,hi to God..

Padre Garrote:          Extra:

Dino Testa:Vocals       Andrei Frondoso:Xylophone,Triangles,Flute and Tamborine           
Edy Capistrano:Gtr.1    Mike Alvez:Sub-Guitar                               
Jiro Uezono:Gtr.2      
Ryan Manongdo:Bass       
Aeroll Cayetano:Drums
   





Comments


Popular Kamikazee tabs & chords
Lucky Bass Tabs
Chismosa Chords
Ert Tabs
Lalandiin Tabs
Petix Intro 1 Tabs
Tamis Tabs
Ung Tagalog 7 Tabs
Alay Ukulele
Eschoose Me Ukulele
Martyr Nyebera Ukulele


Song lyrics



↑ Back to top | Tablatures and chords are parodies/interpretations of the original songs. You may use it for private study, scholarship, research or language learning purposes only
© 2014 AZChords.com Contact us | Privacy policy | DMCA | Add/correct tabs | Request tabs | Top 50 tabs