» » »

Kamikazee, April Day Tabs (ver.1)

Artists:  A B C D E F G H I J K L M N O P Q R S T U V W X Y Z # 

April Day Tabs (ver.1)

Kamikazee Tabs
Rating:
2/5 (4 votes)
April Day lessons Tabs too difficult? Try these video lessons and learn fast
                




*  h - hammer
*  / - slide
*  ^ - bend
*  p - pull out


Intro               (may hammer on d2 at mabilis, pakinggan niyo nalang)         
E|---------------------------|
B|------5h5h5h5----77-77-77--|
G|------5h5h5h5----77-77-77--|
D|---------------------------|
A|---------------------------|
E|---------------------------|

 (strum n2 up and down stroke fast)
(at sa parteng e2 may torotot kaya mejo nd naririnig ung G2, pero merun un)
G1
E|------------------------------------------------|
B|-5555555-7777777-10101010101010-9999/12121212---|
G|-5555555-7777777-10101010101010-9999/12121212---|
D|------------------------------------------------|
A|------------------------------------------------|
E|------------------------------------------------|
  
G2
E|---------------------------------------------------------------------|
B|---5-7-5--7-7-5----5-7-5--7-7-5----5-7-5--7-7-5----5-7-5-10-9-10-12--| 
G|---------------------------------------------------------------------|
D|---------------------------------------------------------------------|  x2
A|---------------------------------------------------------------------|
E|---------------------------------------------------------------------|


E|-----------------------------------------------------------------------5--|
B|-5-7-5--9-7--5-7---5-7-5--9-7--5-7----5-7-5--9-7--5-7----5-7-5--9-7--5----| 
G|--------------------------------------------------------------------------|
D|--------------------------------------------------------------------------|  x2
A|--------------------------------------------------------------------------|
E|--------------------------------------------------------------------------|


E|-------------------|
B|-------------------|
G|-------------------|
D|--9---7-6-7-6------|
A|--------------7----|
E|-------------------|

Verse1

E|----------------------------------------|
B|-55--77--55--99---77--55--7777--101010--|
G|-55--77--55--99---77--55--7777--101010--|
D|----------------------------------------|
A|----------------------------------------|
E|----------------------------------------|
doon sa amin sa sinkratuna
mahaharot ang mga binata
isang araw na ina-abangan
abril day ay ipinag-diriwang

Chorus
G1
E|------------------------------------------------|
B|-5555555-7777777-10101010101010-9999/12121212---|
G|-5555555-7777777-10101010101010-9999/12121212---|
D|------------------------------------------------|
A|------------------------------------------------|
E|------------------------------------------------|
G2
E|---------------------------------------------------------------------|
B|---5-7-5--7-7-5----5-7-5--7-7-5----5-7-5--7-7-5----5-7-5-10-9-10-12--| 
G|---------------------------------------------------------------------|
D|---------------------------------------------------------------------|  x2
A|---------------------------------------------------------------------|
E|---------------------------------------------------------------------|

hawak-hawak kamay iabot mo ang tagay
kahit sobrang lasing walang nag-aaway
kunin mo na ang gitara lahat ay kakanta
kahit wala sa tono basta't sama-sama

Verse 2
E|----------------------------------------|
B|-55--77--55--99---77--55--7777--101010--|
G|-55--77--55--99---77--55--7777--101010--|
D|----------------------------------------|
A|----------------------------------------|
E|----------------------------------------|
nandito na ang buong barkada
may softdrinks na at lapad na grandma
kahit kelan maisipan
abril day ay ipinag-diriwang

Chorus
G1
E|------------------------------------------------|
B|-5555555-7777777-10101010101010-9999/12121212---|
G|-5555555-7777777-10101010101010-9999/12121212---|
D|------------------------------------------------|
A|------------------------------------------------|
E|------------------------------------------------|
G2
E|---------------------------------------------------------------------|
B|---5-7-5--7-7-5----5-7-5--7-7-5----5-7-5--7-7-5----5-7-5-10-9-10-12--| 
G|---------------------------------------------------------------------|
D|---------------------------------------------------------------------|  x2
A|---------------------------------------------------------------------|
E|---------------------------------------------------------------------|

hawak-hawak kamay iabot mo ang tagay
kahit sobrang lasing walang nag-aaway
kunin mo na ang gitara lahat ay kakanta
kahit wala sa tono basta't sama-sama
  

E|-----------------------------------------------------------------------5--|
B|-5-7-5--9-7--5-7---5-7-5--9-7--5-7----5-7-5--9-7--5-7----5-7-5--9-7--5----| 
G|--------------------------------------------------------------------------|
D|--------------------------------------------------------------------------|  x2
A|--------------------------------------------------------------------------|
E|--------------------------------------------------------------------------|
Abril Abril Abril Day tayo
Abril Abril Abril Day tayo
Paboritong Holiday namin to

E|---------------------------|--------------------|
B|------5h5h5h5----77-77-77--|--------------------|
G|------5h5h5h5----77-77-77--|--------------------|
D|---------------------------|--9----7-6-7-6------|
A|---------------------------|---------------7----|
E|---------------------------|--------------------|


Bridge
G1
E|--3-volume--1-volume--2-volume--1-volume---|
B|--3-swallow-1-swallow-2-swallow-1-swallow--|
G|-------------------------------------------|
D|-------------------------------------------|
A|-------------------------------------------|
E|-------------------------------------------|

G2
E|-----------------------------------------------------------------|
B|--4/5---7-8-9-10-9-7/6/7------10-9-10-12-10-9-7-6-7-9-8/10-9-7---|
G|-----------------------------------------------------------------|
D|-----------------------------------------------------------------|
A|-----------------------------------------------------------------|
E|-----------------------------------------------------------------|

E|-------------------------------|---------------------------------------|
B|--10-9-10-12-10-9-9-7-5/6------|--7-6-5-6-7-6h8-6-5-6-8h10-8-6-5-5/6---|
G|-------------------------------|---------------------------------------|
D|----------------------------x2-|---------------------------------------|
A|-------------------------------|---------------------------------------|
E|-------------------------------|---------------------------------------|


E|--------------------------------------------------------|
B|-14^-12---10h9p10h9p10h9p7-----------5-6-7-8-9--10---7--|
G|-------------------------------5-7----------------------|
D|--------------------------------------------------------|
A|--------------------------------------------------------|
E|--------------------------------------------------------|
eman,pabili ng gulaman

E|---------------------|
B|-55--77--1010--99----|
G|-55--77--1010--99----|
D|---------------------| x2
A|---------------------|
E|---------------------|
halika tara na
mas solido pag kasama ka
halika tara na mas solido kapaga kasama ka

(kunin mo na ang gitara
lLahat ay kakanta
kahit sobrang lasing 
basta't sama-sama)

E|---------------------|
B|-55--77--1010--99----|
G|-55--77--1010--99----|
D|---------------------| 
A|---------------------|
E|---------------------|
  oi.....oi
  oi.....oi

  
E|-----------------------------------------------------------------------5--|
B|-5-7-5--9-7--5-7---5-7-5--9-7--5-7----5-7-5--9-7--5-7----5-7-5--9-7--5----| 
G|--------------------------------------------------------------------------|
D|--------------------------------------------------------------------------|  x2
A|--------------------------------------------------------------------------|
E|--------------------------------------------------------------------------|
Abril Abril Abril Day tayo
Abril Abril Abril Day tayo
paboritong Holiday namin to

E|------------------------------|
B|------5h5h5h5----77-77-77-----|
G|------5h5h5h5----77-77-77-----|
D|------------------------------|
A|------------------------------|
E|------------------------------|
oi  oi  oi  oi
umba umba um heyeah
================================

yan po... version ko, sana magustohan niyo...... 
ang ganda nitong kanta para sa mga katulad kung tumador at sa mga nagsasaya lalo't 
kasama ang barkada..
hindi nga lang grandma tagay namin kundi EMPEraning....hehe...
check niyo narin iba kung tab ng kamikazee at aizo...
salamat pala sa nag add sakin sa friendster at sa mga nag rerequest ng aizo tab
paki hintay nalang....


****KUNG MAY TANONG KAU?*****COMMENT?****

but, add me first. para maka send kau ng message. Oh ha!
            
Submit corrections

comments powered by Disqus
↑ Back to top | Kamikazee Tabs for April Day. Lyrics for acoustic guitar and electric guitar. Tablatures and chords are parodies/interpretations of the original songs. You may use it for private study, scholarship, research or language learning purposes only