>
 >
A Sailormans Hymn 2

A Sailormans Hymn 2 Guitar Tabs

Kamelot - A Sailormans Hymn 2 chords, tabs, tablatures, lyrics

Guitar lessons | Add/correct | Request | Top 50 tabs Artists:  A B C D E F G H I J K L M N O P Q R S T U V W X Y Z 0-9

A Sailormans Hymn 2 Guitar Tabs – Kamelot

CD, Sheet music, Poster

Do you like A Sailormans Hymn 2? Share with your friends now
Tabs

A SAILORMAN'S HYMN
As recorded by Kamelot


        



Gtr I (E A D G B E) - 'Vocals'
Gtr II (E A D G B E) - 'Acoustic'
Gtr III (E A D G B E) - 'Distortion'

  Q=150
 3/4
  Gtr II
   E  E  E  E  E  E    E  E  E  E  E  E   E E E E E E
|-------------------|-------------------|-------------|
|-12----12----12----|-10----10----10----|-8---8---8---|
|----12----12----12-|----11----11----11-|---9---9---9-|
|-------------------|-------------------|-------------|
|-------------------|-------------------|-------------|
|-12----------------|-10----------------|-8-----------|


  Q  Q   Q     E  E  E  E  E  E    E  E  E  E  E  E
|-----------|-------------------|---------------------|
|-7--8--10--|-12----12----12----|-10----10----10------|
|-7--9--11--|----12----12----12-|----11----11----11---|
|-----------|-------------------|---------------------|
|-----------|-------------------|---------------------|
|-----------|-12----------------|-10------------------|


  E E E E E E   H.         E  E  E  E  E  E
|-------------|---------|-------------------|
|-8---8---8---|-8-------|-12----12----12----|
|---9---9---9-|-9-------|----12----12----12-|
|-------------|---------|-------------------|
|-------------|---------|-------------------|
|-8-----------|---------|-12----------------|


   E  E  E  E  E  E   E E E E E E   Q  Q   Q
|-------------------|-------------|-----------|
|-10----10----10----|-8---8---8---|-7--8--10--|
|----11----11----11-|---9---9---9-|-7--9--11--|
|-------------------|-------------|-----------|
|-------------------|-------------|-----------|
|-10----------------|-8-----------|-----------|


  Gtr I
   W                 W                W
|-----------------|-----------------|--------------|
|-----------------|-----------------|--------------|
|-----------------|-----------------|--------------|
|-----------------|-----------------|--------------|
|-----------------|-----------------|--------------|
|-----------------|-----------------|--------------|
|
| Gtr II
|  E  E  E  E  Q     E  E  E  E  Q    E E E  E E E
|-----------------|-----------------|--------------|
|-12----12----13--|-10----10----12--|-8---8-10-8-7-|
|----12----12-----|----11----11-----|---9----------|
|-----------------|-----------------|--------------|
|-----------------|-----------------|--------------|
|-12--------------|-10--------------|-8------------|


  W            H           Q       H           Q
|-----------|-------------------|--------------------|
|-----------|-------------------|--------------------|
|-----------|-------------------|--------------------|
|-----------|-------------------|--4-----------4-----|
|-----------|--2-----------2----|--------------------|
|-----------|-------------------|--------------------|
|
| H.           E  E  E  E  E  E    E  E  E  E  E  E
|-----------|-------------------|--------------------|
|-8---------|-12----12----12----|-10----10----10-----|
|-----------|----12----12----12-|----11----11----11--|
|-----------|-------------------|--------------------|
|-----------|-------------------|--------------------|
|-----------|-12----------------|-10-----------------|


  Q   Q   E E   +H       Q     Q     Q     Q
|-------------|-------------|-------------------|
|-------------|-------------|-------------------|
|-----------4-|-(4)---------|-------------------|
|-2---4---2---|-------------|-------------------|
|-------------|-------------|--------2-----2----|
|-------------|-------------|-------------------|
|
| E E E E E E    Q   Q   Q     E  E  E  E  E  E
|-------------|-------------|-------------------|
|-8---8---8---|--7---8--10--|-12----12----12----|
|---9---9---9-|--7---9--11--|----12----12----12-|
|-------------|-------------|-------------------|
|-------------|-------------|-------------------|
|-8-----------|-------------|-12----------------|


   Q     Q     Q      Q   Q   E E   +Q.   E Q
|-------------------|-------------|------------|
|-------------------|-------------|------------|
|-------------------|-------------|------------|
|--4-----4-----4----|-2---4---2---|------------|
|-------------------|-----------2-|-(2)--------|
|-------------------|-------------|------------|
|
|  E  E  E  E  E  E   E E E E E E    H.
|-------------------|-------------|------------|
|-10----10----10----|-8---8---8---|--8---------|
|----11----11----11-|---9---9---9-|--9---------|
|-------------------|-------------|------------|
|-------------------|-------------|------------|
|-10----------------|-8-----------|------------|


   Q     Q     Q       Q     Q     Q      E.   S +E  E +E  E
|-------------------|-------------------|--------------------|
|-------------------|-------------------|--------------------|
|-------------------|-------------------|------------------4-|
|-------------------|--4-----4-----4----|-2----4-(4)-2-(2)---|
|--------2-----2----|-------------------|--------------------|
|-------------------|-------------------|--------------------|
|
|  E  E  E  E  E  E    E  E  E  E  E  E   E  E    E  E  E  E
|-------------------|-------------------|--------------------|
|-12----12----12----|-10----10----10----|-8-------8-----8----|
|----12----12----12-|----11----11----11-|----9-------9-----9-|
|-------------------|-------------------|--------------------|
|-------------------|-------------------|--------------------|
|-12----------------|-10----------------|-8------------------|


  +H       Q     Q     Q     E E   +E   E +Q      Q
|-------------|------------------|---------------------|
|-------------|------------------|---------------------|
|-(4)---------|--------4-----5---|---------------------|
|-------------|----------------7-|-(7)--7-(7)-----9----|
|-------------|------------------|---------------------|
|-------------|------------------|---------------------|
|
|  Q   Q   Q     E  E  E  E  Q      E   E  E   E  Q
|-------------|------------------|---------------------|
|--7---8--10--|-12----12----13---|-10-----10-----12----|
|--7---9--11--|----12----12------|-----11-----11-------|
|-------------|------------------|---------------------|
|-------------|------------------|---------------------|
|-------------|-12---------------|-10------------------|


   Q    Q    E  E    +Q.   E Q    Q     Q    Q
|-----------------|-------------|-----------------|
|-----------------|-------------|-----------------|
|-----------------|-------------|-----------------|
|-----------------|-------------|-------9----9----|
|-10---10----9-10-|-(10)--------|-----------------|
|-----------------|-------------|-----------------|
|
|  E E  E  E E  E     H.          E  E  E E  E  E
|-----------------|-------------|-----------------|
|--8----8-10-8--7-|---8---------|-----------------|
|----9------------|-------------|-----------------|
|-----------------|-------------|---------9-------|
|-----------------|-------------|---10-10---10-10-|
|--8--------------|-------------|-8---------------|


  Q     Q    Q      Q    Q    E  E   +Q.       E  Q
|-----------------|----------------|-------------------|
|-----------------|----------------|-------------------|
|-----------------|-----------7----|-------------------|
|-7-----7----7----|-5----7-------9-|-(9)---------------|
|-----------------|----------------|-------------------|
|-----------------|----------------|-------------------|
|
| E  E  E E  E  E   E E  E E  E  E    E   E  E E  E  E
|-----------------|----------------|-------------------|
|-----------------|----------------|-------------------|
|-----------------|----------------|-------------------|
|---------9-------|--------9-------|-----------9-------|
|---10-10---10-10-|---9-10---10----|--------10---10----|
|-8---------------|-7-----------10-|--0--12---------12-|


  Q     Q    Q      Q     Q    Q      Q    E.    S  +E   E
|-----------------|-----------------|----------------------|
|-----------------|-----------------|----------------------|
|-----------------|-----------------|-7--------------------|
|-------9----9----|-7-----7----7----|----------------------|
|-----------------|-----------------|------9----10-(10)----|
|-----------------|-----------------|-------------------12-|
|
| E  E  E E  E  E   E  E  E E  E  E   E E  E  E      E   E
|-----------------|-----------------|----------------------|
|-----------------|-----------------|----------------------|
|-----------------|-----------------|----------------------|
|---------9-------|---------9-------|---------9------------|
|---10-10---10-10-|---10-10---10-10-|---9-10--------10-----|
|-8---------------|-8---------------|-7-----------------10-|


   +Q.       E  Q      Q     Q    Q       Q     Q    Q
|--------------------|-----------------|--------------------|
|--------------------|-----------------|--------------------|
|--------------------|-----------------|--------------------|
|--------------------|-----------------|--------------------|
|--------------------|------14---14----|-12----12---12------|
|-(12)---------------|-----------------|--------------------|
|
|   E   E  E E  E  E   E  E  E E  E  E    E  E  E E  E  E
|--------------------|-----------------|--------------------|
|--------------------|-----------------|--------------------|
|--------------------|-----------------|--------------------|
|------------9-------|---------9-------|----------9---------|
|---------10---10----|---10-10---10-10-|----10-10---10-10---|
|---0--12---------12-|-8---------------|--8-----------------|


   Q    Q    Q       H          Q      Q     Q    E  E
|-----------------|------------------|-----------------|
|-----------------|------------------|-----------------|
|-----------------|------------------|-----------------|
|-----------12----|------------------|-----------------|
|-10---12---------|-14---------------|------14---14-12-|
|-----------------|------------------|-----------------|
|
|  E E  E E  E  E    E  E  E E  E  E   E  E  E E  E  E
|-----------------|------------------|-----------------|
|-----------------|------------------|-----------------|
|-----------------|------------------|-----------------|
|---------9-------|----------9-------|---------9-------|
|----9-10---10----|-------10---10----|---10-10---10-10-|
|--7-----------10-|--0-12---------12-|-8---------------|


   +Q      Q    Q       Q     Q    Q       Q     Q    Q
|--------------------|------------------|------------------|
|--------------------|------------------|------------------|
|--------------------|------------------|------------------|
|--------------------|-12----12---12----|-13----14---16----|
|-(12)----12---12----|------------------|------------------|
|--------------------|------------------|------------------|
|
|   E   E  E E  E  E    E  E  E E  E  E    E  E  E E  E  E
|--------------------|------------------|------------------|
|--------------------|------------------|------------------|
|--------------------|----------9-------|----------9-------|
|------------9-------|-------------9----|-------------9----|
|------10-10---10-10-|----12-10------10-|----12-10------10-|
|---8----------------|-10---------------|-11---------------|


   Q     Q    E  E    +Q      Q    Q       Q     Q     Q
|------------------|--------------------|-------------------|
|------------------|--------------------|--------------5----|
|------------------|--------------------|--------7----------|
|-17----16---14-14-|-(14)----12---10----|--9----------------|
|------------------|--------------------|-------------------|
|------------------|--------------------|-------------------|
|
|  E  E  E E  E  E     E   E  E E  E  E    E  E  E  E  E  E
|------------------|--------------------|-------------------|
|------------------|--------------------|-------------------|
|----------9-------|------------9-------|----------11-------|
|--------9----9----|----------9----9----|-------12----12----|
|----10---------10-|------10---------10-|----12----------12-|
|-12---------------|---8----------------|-10----------------|


   H        Q       Q    Q   E  E   +Q     Q   Q
|----------------|--3----2--------|-----------------|
|----------------|-----------5--5-|-(5)----3---1----|
|--4-------------|----------------|-----------------|
|----------------|----------------|-----------------|
|----------------|----------------|-----------------|
|----------------|----------------|-----------------|
|
|  E  E E E E  E    E  E E E E  E    E   E E E E  E
|----------------|----------------|-----------------|
|----------------|----------------|-----------------|
|---------9------|---------9------|----------9------|
|-------9---9----|-------9---9----|--------9---9----|
|----10-------10-|----10-------10-|-----10-------10-|
|-12-------------|-12-------------|--8--------------|


   Q     Q     E  E   E E +Q    Q     Q   Q   E E
|-------------------|---------------|-3---2-------|
|--0-----0-----0----|---3-(3)-------|---------5-5-|
|-----------------2-|-4-------------|-------------|
|-------------------|---------------|-------------|
|-------------------|---------------|-------------|
|-------------------|---------------|-------------|
|
|  E  E  E  E  E  E   E E  E  E E E   E E E E E E
|-------------------|---------------|-------------|
|-------------------|---------------|-------5-----|
|----------11-------|---------4-----|-----4---4---|
|-------12----12----|------5----5---|---5-------5-|
|----12----------12-|---5---------5-|-7-----------|
|-10----------------|-3-------------|-------------|


  +Q    Q   E E   Q   Q   Q     Q   Q   Q
|---------------|-------------|-------------|
|-(5)---3-------|-----3---5---|-------------|
|-------------2-|-4-----------|-4-----------|
|---------------|-------------|-------------|
|---------------|-------------|-------------|
|---------------|-------------|-------------|
|
|  E  E E E E E   E E E E E E   E E E E E E
|---------------|-------------|-------------|
|---------5-----|-------7-----|-------5-----|
|-------4---4---|-----7---7---|-----4---4---|
|-----5-------5-|---7-------7-|---5-------5-|
|--3------------|-5-----------|-7-----------|
|---------------|-------------|-------------|


  Q   Q   E E   +Q    Q   Q     H       Q
|-3---2-------|---------------|---------2---|
|---------5-5-|-(5)---3-------|-3-----------|
|-------------|-----------4---|-------------|
|-------------|---------------|-------------|
|-------------|---------------|-------------|
|-------------|---------------|-------------|
|
| E E E E E E    E  E E E E E   E E E E E E
|-------------|---------------|-------------|
|-------5-----|---------5-----|-------7-----|
|-----4---4---|-------4---4---|-----7---7---|
|---5-------5-|-----5-------5-|---7-------7-|
|-7-----------|--3------------|-5-----------|
|-------------|---------------|-------------|


   E  E +H              W                  W
|--2-----------------|-------------------|-------------|
|-----5-(5)----------|-------------------|-------------|
|--------------------|-------------------|-------------|
|--------------------|-------------------|-------------|
|--------------------|-------------------|-------------|
|--------------------|-------------------|-------------|
|
|  E  E  E   E  E  E    E  E  E  E  E  E   E E E E E E
|--------------------|-------------------|-------------|
|-12----12-----12----|-10----10----10----|-8---8---8---|
|----12-----12----12-|----11----11----11-|---9---9---9-|
|--------------------|-------------------|-------------|
|--------------------|-------------------|-------------|
|-12-----------------|-10----------------|-8-----------|


  W            W                 W
|-----------|-----------------|-----------------|
|-----------|-----------------|-----------------|
|-----------|-----------------|-----------------|
|-----------|-----------------|-----------------|
|-----------|-----------------|-----------------|
|-----------|-----------------|-----------------|
|
| Q  Q   Q     E  E  E  E  Q     E  E  E  E  Q
|-----------|-----------------|-----------------|
|-7--8--10--|-12----12----13--|-10----10----12--|
|-7--9--11--|----12----12-----|----11----11-----|
|-----------|-----------------|-----------------|
|-----------|-----------------|-----------------|
|-----------|-12--------------|-10--------------|


  W              W            H           Q
|--------------|-----------|--------------------|
|--------------|-----------|--------------------|
|--------------|-----------|--------------------|
|--------------|-----------|--------------------|
|--------------|-----------|--------------------|
|--------------|-----------|--7-----------7-----|
|
| E E E  E E E   H.           E  E  E  E  E  E
|--------------|-----------|--------------------|
|-8---8-10-8-7-|-8---------|-12----12----12-----|
|---9----------|-----------|----12----12----12--|
|--------------|-----------|--------------------|
|--------------|-----------|--------------------|
|-8------------|-----------|-12-----------------|


   H           Q      Q   E E +Q      H     +S  S E
|-------------------|---------------|---------------|
|-------------------|---------------|---------------|
|-------------------|---------------|---------------|
|-------------------|---------------|-9-----(9)-----|
|--9-----------9----|-7---9-7-(7)---|---------------|
|-------------------|---------------|---------------|
|
|  E  E  E  E  E  E   E E E E  E  E   Q  Q   Q
|-------------------|---------------|---------------|
|-10----10----10----|-8---8----8----|-7--8--10------|
|----11----11----11-|---9---9-----9-|-7--9--11------|
|-------------------|---------------|---------------|
|-------------------|---------------|---------------|
|-10----------------|-8-------------|---------------|


   Q     Q     Q       Q     Q     Q      Q   Q   E E
|-------------------|-------------------|---------------|
|-------------------|-------------------|---------------|
|-------------------|-------------------|---------------|
|-------------------|-------------------|---------------|
|-------------------|--9-----9-----9----|-7---9---7-----|
|--------7-----7----|-------------------|-----------7---|
|
|  E  E  E  E  E  E    E  E  E  E  E  E   E E E E E E
|-------------------|-------------------|---------------|
|-12----12----12----|-10----10----10----|-8---8---8-----|
|----12----12----12-|----11----11----11-|---9---9---9---|
|-------------------|-------------------|---------------|
|-------------------|-------------------|---------------|
|-12----------------|-10----------------|-8-------------|


  +Q.   E Q     Q     Q     Q       Q     Q     Q
|------------|-------------------|-------------------|
|------------|-------------------|-------------------|
|------------|-------------------|-------------------|
|------------|-------------------|-------------------|
|------------|-------------------|--9-----9-----9----|
|-(7)--------|--------7-----7----|-------------------|
|
|  H.           E  E  E  E  E  E    E  E  E  E  E  E
|------------|-------------------|-------------------|
|--8---------|-12----12----12----|-10----10----10----|
|--9---------|----12----12----12-|----11----11----11-|
|------------|-------------------|-------------------|
|------------|-------------------|-------------------|
|------------|-12----------------|-10----------------|


  E.   S +E  E +E  E   +H       Q     Q     Q     E  E
|--------------------|-------------|---------------------|
|--------------------|-------------|---------------------|
|--------------------|-------------|---------------------|
|------------------9-|-(9)---------|--------9----10------|
|-7----9-(9)-7-(7)---|-------------|----------------12---|
|--------------------|-------------|---------------------|
|
| E  E    E  E  E  E    Q   Q   Q     E  E  E  E  Q
|--------------------|-------------|---------------------|
|-8-------8-----8----|--7---8--10--|-12----12----13------|
|----9-------9-----9-|--7---9--11--|----12----12---------|
|--------------------|-------------|---------------------|
|--------------------|-------------|---------------------|
|-8------------------|-------------|-12------------------|


   +Q      Q     Q     Q    Q     E  E    +H     Q
|-------------------|------------------|------------|
|-------------------|------------------|------------|
|-------------------|------------------|------------|
|-------------------|------------------|------------|
|-(12)----12----14--|------------------|------------|
|-------------------|-15---15----14-15-|-(15)-------|
|
|   E   E  E  E  Q     E E  E  E  E  E     H.
|-------------------|------------------|------------|
|--10-----10----12--|--8----8-10--8--7-|---8--------|
|------11----11-----|----9-------------|------------|
|-------------------|------------------|------------|
|-------------------|------------------|------------|
|--10---------------|--8---------------|------------|


  Q     Q    E  E    +Q      Q    Q       Q    Q    E  E
|-----------------|--------------------|-----------------|
|-----------------|--------------------|-----------------|
|-----------------|--------------------|-----------------|
|-----------------|--------------------|-----------12----|
|------14---14-12-|-(12)----12---12----|-10---12------14-|
|-----------------|--------------------|-----------------|
|
| E  E  E E  E  E     E   E  E E  E  E    E E  E E  E  E
|-----------------|--------------------|-----------------|
|-----------------|--------------------|-----------------|
|-----------------|--------------------|-----------------|
|---------9-------|------------9-------|---------9-------|
|---10-10---10-10-|------10-10---10-10-|----9-10---10----|
|-8---------------|---8----------------|--7-----------10-|


   +Q      Q    Q      Q     Q    Q       Q     Q    Q
|--------------------|-----------------|------------------|
|--------------------|-----------------|------------------|
|--------------------|-----------------|------------------|
|--------------------|-----------------|------------------|
|-(14)---------------|------14---14----|-12----12---12----|
|--------------------|-----------------|------------------|
|
|   E   E  E E  E  E   E  E  E E  E  E    E  E  E E  E  E
|--------------------|-----------------|------------------|
|--------------------|-----------------|------------------|
|--------------------|-----------------|------------------|
|------------9-------|---------9-------|----------9-------|
|---------10---10----|---10-10---10-10-|----10-10---10-10-|
|---0--12---------12-|-8---------------|--8---------------|


   Q    E.    S  +E   E    +Q.       E  Q      Q     Q    Q
|-----------------------|--------------------|-------------------|
|-----------------------|--------------------|-------------------|
|-----------------------|--------------------|-------------------|
|-12--------------------|--------------------|-------------------|
|-----------------------|--------------------|------14---14------|
|------14----15-(15)-12-|-(12)---------------|-------------------|
|
|  E E  E  E      E   E     E   E  E E  E  E   E  E  E E  E  E
|-----------------------|--------------------|-------------------|
|-----------------------|--------------------|-------------------|
|-----------------------|--------------------|-------------------|
|----------9------------|------------9-------|---------9---------|
|----9-10--------10-----|---------10---10----|---10-10---10-10---|
|--7-----------------10-|---0--12---------12-|-8-----------------|


   Q     Q    Q       Q    Q    Q       H          Q
|------------------|-----------------|------------------|
|------------------|-----------------|------------------|
|------------------|-----------------|------------------|
|------------------|-----------12----|------------------|
|-12----12---12----|-10---12---------|-14---------------|
|------------------|-----------------|------------------|
|
|  E  E  E E  E  E    E E  E E  E  E    E  E  E E  E  E
|------------------|-----------------|------------------|
|------------------|-----------------|------------------|
|------------------|-----------------|------------------|
|----------9-------|---------9-------|----------9-------|
|----10-10---10-10-|----9-10---10----|-------10---10----|
|--8---------------|--7-----------10-|--0-12---------12-|
|
| Gtr III
|  W                  W                 W
|------------------|-----------------|------------------|
|------------------|-----------------|------------------|
|------------------|-----------------|------------------|
|------------------|-----------------|------------------|
|------------------|-----------------|------------------|
|------------------|-----------------|------------------|


  Q     Q    Q       Q     Q    Q       Q     Q    Q
|-----------------|------------------|------------------|
|-----------------|------------------|------------------|
|-----------------|------------------|------------------|
|-----------------|------------------|-12----12---12----|
|------14---14----|-12----12---12----|------------------|
|-----------------|------------------|------------------|
|
| E  E  E E  E  E    E  E  E E  E  E    E  E  E E  E  E
|-----------------|------------------|------------------|
|-----------------|------------------|------------------|
|-----------------|------------------|----------9-------|
|---------9-------|----------9-------|-------------9----|
|---10-10---10-10-|----10-10---10-10-|----12-10------10-|
|-8---------------|--8---------------|-10---------------|
|
| W                  W                  E  E  E E  E  E
|-----------------|------------------|------------------|
|-----------------|------------------|------------------|
|-----------------|------------------|------------------|
|-----------------|------------------|--7---------------|
|-----------------|------------------|--5--5--5-5--5--5-|
|-----------------|------------------|------------------|


   Q     Q    Q       Q      Q    E  E    +Q      Q    Q
|------------------|-------------------|--------------------|
|------------------|-------------------|--------------------|
|------------------|-------------------|--------------------|
|-13----14---16----|-17-----16---14-14-|-(14)----12---10----|
|------------------|-------------------|--------------------|
|------------------|-------------------|--------------------|
|
|  E  E  E E  E  E    E   E  E E  E  E     E   E  E E  E  E
|------------------|-------------------|--------------------|
|------------------|-------------------|--------------------|
|----------9-------|-----------9-------|------------9-------|
|-------------9----|---------9----9----|----------9----9----|
|----12-10------10-|-----10---------10-|------10---------10-|
|-11---------------|-12----------------|---8----------------|
|
|  E  E  E E  E  E    H.                   H.
|------------------|-------------------|--------------------|
|------------------|-------------------|--------------------|
|------------------|-------------------|--------------------|
|--7---------------|--9----------------|---5----------------|
|--6--6--6-6--6--6-|--7----------------|---3----------------|
|------------------|-------------------|--------------------|


   Q      Q     Q       H         Q       Q     Q   E  E
|--------------------|-----------------|--3-----2--------|
|---------------5----|-----------------|------------5--5-|
|---------7----------|--4--------------|-----------------|
|--9-----------------|-----------------|-----------------|
|--------------------|-----------------|-----------------|
|--------------------|-----------------|-----------------|
|
|  E   E  E  E  E  E    E   E E E E  E    E   E E E E  E
|--------------------|-----------------|-----------------|
|--------------------|-----------------|-----------------|
|-----------11-------|----------9------|----------9------|
|--------12----12----|--------9---9----|--------9---9----|
|-----12----------12-|-----10-------10-|-----10-------10-|
|-10-----------------|-12--------------|-12--------------|
|
|  H.                   H.                H.
|--------------------|-----------------|-----------------|
|--------------------|-----------------|-----------------|
|--------------------|-----------------|-----------------|
|--7-----------------|-----------------|--9--------------|
|--5-----------------|--2--------------|--7--------------|
|--------------------|--0--------------|-----------------|


  +Q     Q   Q       Q      Q     E  E   E  E +Q    Q
|-----------------|--------------------|----------------|
|-(5)----3---1----|--0------0-----0----|----3-(3)-------|
|-----------------|------------------2-|-4--------------|
|-----------------|--------------------|----------------|
|-----------------|--------------------|----------------|
|-----------------|--------------------|----------------|
|
|  E   E E E E  E    E   E  E  E  E  E   E  E  E  E E E
|-----------------|--------------------|----------------|
|-----------------|--------------------|----------------|
|----------9------|-----------11-------|----------4-----|
|--------9---9----|--------12----12----|-------5----5---|
|-----10-------10-|-----12----------12-|----5---------5-|
|--8--------------|-10-----------------|-3--------------|
|
|  H.                H.                  H.
|-----------------|--------------------|----------------|
|-----------------|--------------------|----------------|
|-----------------|--------------------|----------------|
|--5--------------|--7-----------------|----------------|
|--3--------------|--5-----------------|-5--------------|
|-----------------|--------------------|-3--------------|


  Q    Q   E.   S   +E.   S +Q    E E   Q    Q   Q
|-3----2----------|-------------------|---------------|
|----------5----5-|-(5)---3-(3)-------|------3---5----|
|-----------------|-----------------4-|-4-------------|
|-----------------|-------------------|---------------|
|-----------------|-------------------|---------------|
|-----------------|-------------------|---------------|
|
| E  E E E E  E      E  E    E  E E E   E  E E E E E
|-----------------|-------------------|---------------|
|--------5--------|-------------5-----|--------7------|
|------4---4------|----------4----4---|------7---7----|
|----5--------5---|-----5-----------5-|----7-------7--|
|-7---------------|--3----------------|-5-------------|
|-----------------|-------------------|---------------|
|
| H.                 H.                 H.
|-----------------|-------------------|---------------|
|-----------------|-------------------|---------------|
|-----------------|-------------------|---------------|
|-9---------------|--5----------------|-7-------------|
|-7---------------|--3----------------|-5-------------|
|-----------------|-------------------|---------------|


  Q    Q   Q     Q    Q   Q     Q    Q   Q
|--------------|-3----2-------|--------------|
|--------------|----------5---|-5----3-------|
|-4------------|--------------|----------4---|
|--------------|--------------|--------------|
|--------------|--------------|--------------|
|--------------|--------------|--------------|
|
| E  E E E E E   E  E E E E E   E  E E E E E
|--------------|--------------|--------------|
|--------5-----|--------5-----|--------5-----|
|------4---4---|------4---4---|------4---4---|
|----5-------5-|----5-------5-|----5-------5-|
|-7------------|-7------------|-3------------|
|--------------|--------------|--------------|
|
| H.             H.             H.
|--------------|--------------|--------------|
|--------------|--------------|--------------|
|--------------|--------------|--------------|
|--------------|-9------------|-5------------|
|-2------------|-7------------|-3------------|
|-0------------|--------------|--------------|


  H        Q     H.            +H.
|--------------|-------------|--------------|
|-3--------3---|-5-----------|-(5)----------|
|--------------|-------------|--------------|
|--------------|-------------|--------------|
|--------------|-------------|--------------|
|--------------|-------------|--------------|
|
| E  E E E E E   W              W
|--------------|-------------|--------------|
|--------7-----|-------------|--------------|
|------7---7---|-------------|--------------|
|----7-------7-|-------------|--------------|
|-5------------|-------------|--------------|
|--------------|-------------|--------------|
|
| H.             Q   E E E E    Q   E E E E
|--------------|-------------|--------------|
|--------------|-------------|--------------|
|--------------|-------------|--------------|
|-7------------|-2-----------|--5-----------|
|-5------------|-0---0-0-0-0-|--3---3-3-3-3-|
|--------------|-------------|--------------|


  Gtr III
  Q  E E E E   Q  E E E E   H    E E   H    E E    E E S S E E E   H.
|------------|------------|-5----7-8-|-7----5-7-|-10-8-7-8-7-5-3-|-5-----|
|------------|------------|----------|----------|----------------|-------|
|------------|------------|----------|----------|----------------|-------|
|------------|------------|----------|----------|----------------|-------|
|-5----------|-2----------|----------|----------|----------------|-------|
|-3--3-3-3-3-|-0--0-0-0-0-|----------|----------|----------------|-------|


  Q  E E E E   Q  E E E E   Q  E E E E   Q  E E E E   E E H      E E  H
|------------|------------|------------|------------|-3-5-7----|-7-8-------|
|------------|------------|------------|------------|----------|-----10----|
|------------|------------|------------|------------|----------|-----------|
|------------|-5----------|------------|------------|----------|-----------|
|-7----------|-3--3-3-3-3-|-5----------|-2----------|----------|-----------|
|-5--5-5-5-5-|------------|-3--3-3-3-3-|-0--0-0-0-0-|----------|-----------|


  E  E  S  S  S  S  S  S  S  S    H.
|------------------------------|----------|
|-8-10-12-13----12----10-------|----------|
|------------14----12----11-12-|----------|
|------------------------------|-14-------|
|------------------------------|----------|
|------------------------------|----------|


  Q  E E E E   Q  E E E E   Q  E E E E
|------------|------------|-------------|
|------------|------------|-------------|
|------------|------------|-------------|
|-2----------|-5----------|-------------|
|-0--0-0-0-0-|-3--3-3-3-3-|-5-----------|
|------------|------------|-3--3-3-3-3--|


  Q  E E E E   H    E E   H    E E   S S S S E E E E   E E E E E E
|------------|----------|----------|-----------------|-7---7---7----|
|------------|----------|------3-5-|-3-5-3-5-3-1-3---|---8---8---8--|
|------------|-2----4-5-|-4--------|---------------4-|--------------|
|------------|----------|----------|-----------------|--------------|
|-2----------|----------|----------|-----------------|--------------|
|-0--0-0-0-0-|----------|----------|-----------------|--------------|


   E  E  E  E  E  E    E  E  E  E  E  E
|-------------------|-------------------|
|-10----10----10----|-------------------|
|----11----11----11-|-12----12----12----|
|-------------------|----14----14----14-|
|-------------------|-------------------|
|-------------------|-------------------|


   E  E  E  E  E  E    E  E  E  E  Q     E  E  E  E  Q
|-------------------|-----------------|------------------|
|-------------------|-----------------|------------------|
|-------------------|-----------------|------------------|
|-16----17----19----|-21----21----22--|-------19----21---|
|----17----19----21-|----22----22-----|-24-21----21------|
|-------------------|-----------------|------------------|


  Gtr I
   W                         W
|-------------------------|-------------------------------|
|-------------------------|-------------------------------|
|-------------------------|-------------------------------|
|-------------------------|-------------------------------|
|-------------------------|-------------------------------|
|-------------------------|-------------------------------|
|
| Gtr III
|  E  E  E  S  S  S  S  E    E  E  S  S  S  S  S  S  S  S
|-------------------------|-------------------------------|
|-------------------------|-------------------------------|
|-------------------------|-------------------------------|
|-------------------------|-------------------------------|
|-22-19-22-22-24-22-21-22-|-21-19-17-19-17-15-14-15-14-12-|
|-------------------------|-------------------------------|


   Q       Q       Q         Q   Q  E E
|--------------------------|------------|
|------------------7-------|-8---7--5-5-|
|--------------------------|------------|
|--------------------------|------------|
|--------------------------|------------|
|--------------------------|------------|
|
|  S S S S S S S S S S S S   H.
|--------------------------|------------|
|--------------------------|------------|
|--------------------------|------------|
|--------------------------|-9----------|
|-10-9-7-5-3-2-0-----------|-7----------|
|----------------3-2-0-0-0-|------------|


  +Q   Q  Q    Q   Q  Q    H     Q    Q   Q  Q    Q   Q  Q    Q   Q  E E
|------------|-----------|----------|-3---2-----|-----------|------------|
|-(5)--3--1--|-0---3--5--|----------|--------5--|-5---3--1--|-0---0--0---|
|------------|-----------|-4--------|-----------|-----------|----------2-|
|------------|-----------|----------|-----------|-----------|------------|
|------------|-----------|----------|-----------|-----------|------------|
|------------|-----------|----------|-----------|-----------|------------|
|
|  H.          H.          H.         H.          H.          H.
|------------|-----------|----------|-----------|-----------|------------|
|------------|-----------|----------|-----------|-----------|------------|
|------------|-----------|----------|-----------|-----------|------------|
|--5---------|-7---------|----------|-9---------|-5---------|-7----------|
|--3---------|-5---------|-2--------|-7---------|-3---------|-5----------|
|------------|-----------|-0--------|-----------|-----------|------------|


  E  E +Q   Q    Q   Q  Q    E. S +Q   E E
|--------------|-3---2-----|---------------|
|----3-(3)-----|--------5--|-7--8-(8)------|
|-4------------|-----------|-------------9-|
|--------------|-----------|---------------|
|--------------|-----------|---------------|
|--------------|-----------|---------------|
|
| H.             H.          H.
|--------------|-----------|---------------|
|--------------|-----------|---------------|
|--------------|-----------|---------------|
|--------------|-9---------|-5-------------|
|-5------------|-7---------|-3-------------|
|-3------------|-----------|---------------|


   Q   Q  E S S   Q   Q  Q    Q   Q  Q
|---------------|-----------|-------------|
|-10---8--7-7-8-|-----------|-8---7--5----|
|---------------|-9---------|-------------|
|---------------|-----------|-------------|
|---------------|-----------|-------------|
|---------------|-----------|-------------|
|
|  H.             H.          H.
|---------------|-----------|-------------|
|---------------|-----------|-------------|
|---------------|-----------|-------------|
|--7------------|-----------|-9-----------|
|--5------------|-2---------|-7-----------|
|---------------|-0---------|-------------|


  Q   Q  Q    Q.   E Q    E. S +E  E Q    Q   Q  Q    Q   Q.   E   Q   Q  Q
|-----------|-----------|------------2--|-3---2-----|------------|-----------|
|-5---3-----|-3------3--|-5--3-(3)------|--------5--|-7---8----8-|-7---5--3--|
|--------4--|-----------|----------4----|-----------|------------|-----------|
|-----------|-----------|---------------|-----------|------------|-----------|
|-----------|-----------|---------------|-----------|------------|-----------|
|-----------|-----------|---------------|-----------|------------|-----------|
|
| H.          H.          H.              H.          H.           H.
|-----------|-----------|---------------|-----------|------------|-----------|
|-----------|-----------|---------------|-----------|------------|-----------|
|-----------|-2---------|-4-------------|-4---------|------------|-2---------|
|-5---------|-0---------|-2-------------|-2---------|-5----------|-0---------|
|-3---------|-----------|---------------|-----------|-3----------|-----------|
|-----------|-----------|---------------|-----------|------------|-----------|


  H     Q    Q   Q  Q    Q   Q  Q    Q   Q  E E   +Q   Q  Q    Q   Q  E E
|----------|-3---2-----|-3---2-----|-3---2----3-|-(3)--------|-3---2------|
|-5--------|--------5--|--------5--|--------5---|------------|--------5-5-|
|----------|-----------|-----------|------------|------------|------------|
|----------|-----------|-----------|------------|------------|------------|
|----------|-----------|-----------|------------|------------|------------|
|----------|-----------|-----------|------------|------------|------------|
|
| H.         H.          H.          H.            H.          H.
|----------|-----------|-----------|------------|------------|------------|
|----------|-----------|-----------|------------|------------|------------|
|----------|-4---------|-----------|-2----------|------------|-4----------|
|----------|-2---------|-5---------|-0----------|------------|-2----------|
|-2--------|-----------|-3---------|------------|--5---------|------------|
|-0--------|-----------|-----------|------------|--3---------|------------|


  +E. S +Q   E E   Q   Q  Q    Q   Q  Q    Q   Q  Q    Q.   E E E   H     Q
|----------------|-----------|-----------|-3---2-----|-3--------3-|-5--------|
|-(5)-3-(3)------|-----3--5--|-----------|--------5--|------------|-------7--|
|--------------4-|-4---------|-4---------|-----------|------------|----------|
|----------------|-----------|-----------|-----------|------------|----------|
|----------------|-----------|-----------|-----------|------------|----------|
|----------------|-----------|-----------|-----------|------------|----------|
|
|  H.              H.          H.          H.          H.           H.
|----------------|-----------|-----------|-----------|------------|----------|
|----------------|-----------|-----------|-----------|------------|----------|
|----------------|-2---------|-----------|-4---------|------------|-2--------|
|--5-------------|-0---------|-----------|-2---------|-5----------|-0--------|
|--3-------------|-----------|-2---------|-----------|-3----------|----------|
|----------------|-----------|-0---------|-----------|------------|----------|


  E E +Q.       E     W
|-------------------|-----------------|
|-7-5-(5)-----------|-----------------|
|-------------------|-----------------|
|-------------------|-----------------|
|-------------------|-----------------|
|-------------------|-----------------|
|
| E E  E  E S S S S   E E E E S S S S
|-7----7----7-8-7-8-|-5-2-5-2-5-7-5-7-|
|---8-----8---------|-----------------|
|-------------------|-----------------|
|-------------------|-----------------|
|-------------------|-----------------|
|-------------------|-----------------|


  W                 W             W
|-----------------|-------------|--------------|
|-----------------|-------------|--------------|
|-----------------|-------------|--------------|
|-----------------|-------------|--------------|
|-----------------|-------------|--------------|
|-----------------|-------------|--------------|
|
| E E E E S S S S   E E E E E E   E E E E E E
|-3-0-3-0-3-5-3-5-|-2---3-0-5-2-|-7-3-7-3-7-3--|
|-----------------|---3---------|--------------|
|-----------------|-------------|--------------|
|-----------------|-------------|--------------|
|-----------------|-------------|--------------|
|-----------------|-------------|--------------|


                Q=120         Q=110
  Gtr III
                                        ~~~~~~~~~~~~~~
  E E E E E E   E E E E E E   H.        H.        +H.
|-5-2-5-2-5-2-|-3-0-3-0-3-0-|-3-------|-0-------|-(0)----*|
|-------------|-------------|---------|-0-------|-(0)----*|
|-------------|-------------|---------|-0-------|-(0)----*|
|-------------|-------------|---------|-2-------|-(2)----*|
|-------------|-------------|---------|-2-------|-(2)----*|
|-------------|-------------|---------|-0-------|-(0)----*|



Duration Legend
---------------
W - whole; H - half; Q - quarter; E - 8th; S - 16th; T - 32nd; X - 64th; a - acciaccatura
+ - note tied to previous; . - note dotted; .. - note double dotted
Uncapitalized letters represent notes that are staccato (1/2 duration)
Irregular groupings are notated above the duration line
Duration letters will always appear directly above the note/fret number it represents the
duration for.  Duration letters with no fret number below them represent rests.  Multi-
bar rests are notated in the form Wxn, where n is the number of bars to rest for.  Low
melody durations appear below the staff

Tablature Legend
----------------
 h   - hammer-on
 p   - pull-off
 b   - bend
 pb  - pre-bend
 r   - bend release (if no number after the r, then release immediately)
 /\  - slide into or out of (from/to "nowhere")
 s   - legato slide
 S   - shift slide
 - natural harmonic
[n]  - artificial harmonic
n(n) - tapped harmonic
 ~   - vibrato
 tr  - trill
 T   - tap
 TP  - trem. picking
 PM  - palm muting
\n/  - tremolo bar dip; n = amount to dip
 \n  - tremolo bar down
 n/  - tremolo bar up
/n\  - tremolo bar inverted dip
 =   - hold bend; also acts as connecting device for hammers/pulls
 <> - volume swell (louder/softer)
 x   - on rhythm slash represents muted slash
 o   - on rhythm slash represents single note slash

Misc Legend
-----------
 |  - bar
||  - double bar
||o - repeat start
o|| - repeat end
*|  - double bar (ending)
 :  - bar (freetime)
 $  - Segno
 &  - Coda
Tempo markers -  = BPM(8/16=s8/s16), where s8 = swing 8ths, s16 = swing 16ths





Comments


Popular Kamelot tabs & chords
March Of Mephisto Bass Tabs
On The Coldest Winter Night Bass Tabs
Epilogue Chords
Temples Of Gold Chords
Forever (Intro) Tabs
Light I Shine On You Tabs
Nights Of Arabia Tabs
Siege (Intro) Tabs
A Sailormans Hymn Ukulele
On The Coldest Winter Night Ukulele


Song lyrics



↑ Back to top | Tablatures and chords are parodies/interpretations of the original songs. You may use it for private study, scholarship, research or language learning purposes only
© 2014 AZChords.com Contact us | Privacy policy | DMCA | Add/correct tabs | Request tabs | Top 50 tabs