>
 >
A Sailorman's Hymn

A Sailorman's Hymn Guitar Tabs

Kamelot - A Sailorman's Hymn chords, tabs, tablatures, lyrics

Guitar lessons | Add/correct | Request | Top 50 tabs Artists:  A B C D E F G H I J K L M N O P Q R S T U V W X Y Z 0-9

A Sailorman's Hymn Guitar Tabs – Kamelot

CD, Sheet music, Poster

Do you like A Sailorman's Hymn? Share with your friends now
Bass TabsTabsTabs v2
Kamelot
Track number 7 from The Fourth Legacy (2000)
Tunning: 1/2 step down (EbAbDbGbBbeb)
Played on Acoustic guitar with nylon strings


Intro
eb||---7---7---7---7----|---5---5---5---5----|---3---3---3---3----|---2----3----5---||
Bb||-----8---8---8---8--|-----7---7---7---7--|-----5---5---5---5--|---3----5----7---||
Gb||--------------------|--------------------|--------------------|-----------------||
Db||--------------------|--------------------|--------------------|-----------------||
Ab||--------------------|--------------------|--------------------|-----------------||
Eb||--(0)---------------|--(0)---------------|--(0)---------------|--(0)--(0)--(0)--||

eb||---7---7---7---7----|---5---5---5---5----|---3---3---3---3----|---3---||
Bb||-----8---8---8---8--|-----7---7---7---7--|-----5---5---5---5--|---5---||
Gb||--------------------|--------------------|--------------------|-------||
Db||--------------------|--------------------|--------------------|-------||
Ab||--------------------|--------------------|--------------------|-------||
Eb||--(0)---------------|--(0)---------------|--(0)---------------|--(0)--||

eb||---7---7---7---7----|---5---5---5---5----|---3---3---3---3----|---2----3----5---||
Bb||-----8---8---8---8--|-----7---7---7---7--|-----5---5---5---5--|---3----5----7---||
Gb||--------------------|--------------------|--------------------|-----------------||
Db||--------------------|--------------------|--------------------|-----------------||
Ab||--------------------|--------------------|--------------------|-----------------||
Eb||--(0)---------------|--(0)---------------|--(0)---------------|--(0)--(0)--(0)--||

eb||---7---7---7---8----|---5---5---5---7----|---3---3--5-3-2-3--||
Bb||-----8---8---8---8--|-----7---7---7---7--|-----5-------------||
Gb||--------------------|--------------------|-------------------||
Db||--------------------|--------------------|-------------------||
Ab||--------------------|--------------------|-------------------||
Eb||--(0)---------------|--(0)---------------|--(0)--------------||


Verse 1
eb||---7---7---7---7----|---5---5---5---5----|---3---3---3---3----|---2----3----5---||
Bb||-----8---8---8---8--|-----7---7---7---7--|-----5---5---5---5--|---3----5----7---||
Gb||--------------------|--------------------|--------------------|-----------------||
Db||--------------------|--------------------|--------------------|-----------------||
Ab||--------------------|--------------------|--------------------|-----------------||
Eb||--(0)---------------|--(0)---------------|--(0)---------------|--(0)--(0)--(0)--||

eb||---7---7---7---7----|---5---5---5---5----|---3---3---3---3----|---3---||
Bb||-----8---8---8---8--|-----7---7---7---7--|-----5---5---5---5--|---5---||
Gb||--------------------|--------------------|--------------------|-------||
Db||--------------------|--------------------|--------------------|-------||
Ab||--------------------|--------------------|--------------------|-------||
Eb||--(0)---------------|--(0)---------------|--(0)---------------|--(0)--||

eb||---7---7---7---7----|---5---5---5---5----|---3---3---3---3----|---2----3----5---||
Bb||-----8---8---8---8--|-----7---7---7---7--|-----5---5---5---5--|---3----5----7---||
Gb||--------------------|--------------------|--------------------|-----------------||
Db||--------------------|--------------------|--------------------|-----------------||
Ab||--------------------|--------------------|--------------------|-----------------||
Eb||--(0)---------------|--(0)---------------|--(0)---------------|--(0)--(0)--(0)--||

eb||---7---7---7---8----|---5---5---5---7----|---3---3--5-3-2-3--||
Bb||-----8---8---8---8--|-----7---7---7---7--|-----5-------------||
Gb||--------------------|--------------------|-------------------||
Db||--------------------|--------------------|-------------------||
Ab||--------------------|--------------------|-------------------||
Eb||--(0)---------------|--(0)---------------|--(0)--------------||

Pre-chorus
eb||---------------------------------------------------------||
Bb||--------0-------------0-------------0-------------0------||
Gb||------0---0---------0---0---------0---0---------0---0----|| x3
Db||----5-------5-----5-------5-----4-------4-----2-------2--||
Ab||--3-------------3-------------2--------------------------||
Eb||--------------------------------------------0------------||

eb||---------------------------------------------------------||
Bb||--------0-------------0-------------0-------------0------||
Gb||------0---0---------0---0---------0---0---------0---0----|| 
Db||----5-------5-----5-------5-----7-------7-----7-------7--||
Ab||--3-------------3-------------5-------------6------------||
Eb||---------------------------------------------------------||

Chorus
eb||--------0-------------0-------------0-------------0------||
Bb||------0---0---------0---0---------3---3---------0---0----||
Gb||----0-------0-----0-------0-----2-------2-----0-------0--||
Db||--2---------------------------0--------------------------||
Ab||----------------3----------------------------------------||
Eb||--------------------------------------------0------------||

eb||--------0-------------0-------------0-------------0------||
Bb||------0---0---------0---0---------3---3---------0---0----||
Gb||----0-------0-----0-------0-----2-------2-----0-------0--||
Db||--2---------------------------0--------------------------||
Ab||----------------3----------------------------------------||
Eb||--------------------------------------------3------------||

eb||--------0-------------0-------------0-------------0------||
Bb||------0---0---------0---0---------3---3---------0---0----||
Gb||----0-------0-----0-------0-----2-------2-----0-------0--||
Db||--2---------------------------0--------------------------||
Ab||----------------3----------------------------------------||
Eb||--------------------------------------------0------------||

eb||--------0-------------0-------------0------||
Bb||------0---0---------0---0---------3---3----||
Gb||----0-------0-----0-------0-----2-------2--||
Db||--2---------------------------0------------||
Ab||----------------3--------------------------||
Eb||-------------------------------------------||

Pre-verse or ending of the chorus (as you preffer to call it)
eb||---7---7---7---7----|---5---5---5---5----|---3---3---3---3----|---2----3----5---||
Bb||-----8---8---8---8--|-----7---7---7---7--|-----5---5---5---5--|---3----5----7---||
Gb||--------------------|--------------------|--------------------|-----------------||
Db||--------------------|--------------------|--------------------|-----------------||
Ab||--------------------|--------------------|--------------------|-----------------||
Eb||--(0)---------------|--(0)---------------|--(0)---------------|--(0)--(0)--(0)--||

eb||---7---7---7---8----|---5---5---5---7----|---3---3--5-3-2-3--||
Bb||-----8---8---8---8--|-----7---7---7---7--|-----5-------------||
Gb||--------------------|--------------------|-------------------||
Db||--------------------|--------------------|-------------------||
Ab||--------------------|--------------------|-------------------||
Eb||--(0)---------------|--(0)---------------|--(0)--------------||

Verse 2
eb||---7---7---7---7----|---5---5---5---5----|---3---3---3---3----|---2----3----5---||
Bb||-----8---8---8---8--|-----7---7---7---7--|-----5---5---5---5--|---3----5----7---||
Gb||--------------------|--------------------|--------------------|-----------------||
Db||--------------------|--------------------|--------------------|-----------------||
Ab||--------------------|--------------------|--------------------|-----------------||
Eb||--(0)---------------|--(0)---------------|--(0)---------------|--(0)--(0)--(0)--||

eb||---7---7---7---7----|---5---5---5---5----|---3---3---3---3----|---3---||
Bb||-----8---8---8---8--|-----7---7---7---7--|-----5---5---5---5--|---5---||
Gb||--------------------|--------------------|--------------------|-------||
Db||--------------------|--------------------|--------------------|-------||
Ab||--------------------|--------------------|--------------------|-------||
Eb||--(0)---------------|--(0)---------------|--(0)---------------|--(0)--||

eb||---7---7---7---7----|---5---5---5---5----|---3---3---3---3----|---2----3----5---||
Bb||-----8---8---8---8--|-----7---7---7---7--|-----5---5---5---5--|---3----5----7---||
Gb||--------------------|--------------------|--------------------|-----------------||
Db||--------------------|--------------------|--------------------|-----------------||
Ab||--------------------|--------------------|--------------------|-----------------||
Eb||--(0)---------------|--(0)---------------|--(0)---------------|--(0)--(0)--(0)--||

eb||---7---7---7---8----|---5---5---5---7----|---3---3--5-3-2-3--||
Bb||-----8---8---8---8--|-----7---7---7---7--|-----5-------------||
Gb||--------------------|--------------------|-------------------||
Db||--------------------|--------------------|-------------------||
Ab||--------------------|--------------------|-------------------||
Eb||--(0)---------------|--(0)---------------|--(0)--------------||

Pre-chorus
eb||---------------------------------------------------------||
Bb||--------0-------------0-------------0-------------0------||
Gb||------0---0---------0---0---------0---0---------0---0----|| x3
Db||----5-------5-----5-------5-----4-------4-----2-------2--||
Ab||--3-------------3-------------2--------------------------||
Eb||--------------------------------------------0------------||

eb||---------------------------------------------------------||
Bb||--------0-------------0-------------0-------------0------||
Gb||------0---0---------0---0---------0---0---------0---0----|| 
Db||----5-------5-----5-------5-----7-------7-----7-------7--||
Ab||--3-------------3-------------5-------------6------------||
Eb||---------------------------------------------------------||

Chorus
eb||--------0-------------0-------------0-------------0------||
Bb||------0---0---------0---0---------3---3---------0---0----||
Gb||----0-------0-----0-------0-----2-------2-----0-------0--||
Db||--2---------------------------0--------------------------||
Ab||----------------3----------------------------------------||
Eb||--------------------------------------------0------------||

eb||--------0-------------0-------------0-------------0------||
Bb||------0---0---------0---0---------3---3---------0---0----||
Gb||----0-------0-----0-------0-----2-------2-----0-------0--||
Db||--2---------------------------0--------------------------||
Ab||----------------3----------------------------------------||
Eb||--------------------------------------------3------------||

eb||--------0-------------0-------------0-------------0------||
Bb||------0---0---------0---0---------3---3---------0---0----||
Gb||----0-------0-----0-------0-----2-------2-----0-------0--|| x2
Db||--2---------------------------0--------------------------||
Ab||----------------3----------------------------------------||
Eb||--------------------------------------------0------------||

Intrumental (only piano and violins at the start)(2:35 minutes of the song)

eb||-----------------------------------------------|-------------------------------7-8-10--||
Bb||--While the violins and the piano--------------|------------------------7-8-10---------||
Gb||--are playing the instrumental the guitar------|------------------6-7-9----------------||
Db||--improvise a little on a part of the E minor--|-----------7-9-10----------------------||
Ab||--scale, so you can play picking notes out-----|----7-9-10-----------------------------||
Eb||--from the next scale.-------------------------|--0------------------------------------||

After a while the guitar end the intrumental with the next (2:50)

eb||---7---7---7---7----|---5---5---5---5----|---3---3---3---3----|---2----3----5---||
Bb||-----8---8---8---8--|-----7---7---7---7--|-----5---5---5---5--|---3----5----7---||
Gb||--------------------|--------------------|--------------------|-----------------||
Db||--------------------|--------------------|--------------------|-----------------||
Ab||--------------------|--------------------|--------------------|-----------------||
Eb||--(0)---------------|--(0)---------------|--(0)---------------|--(0)--(0)--(0)--||

eb||---7---7---7---8----|---5---5---5---7----|---3---3--5-3-2-3--|-------------------------------||
Bb||-----8---8---8---8--|-----7---7---7---7--|-----5-------------|--2h3p2--------------------------||
Gb||--------------------|--------------------|-------------------|--------5-4-2--------------------||
Db||--------------------|--------------------|-------------------|--------------5-4-2--------------||
Ab||--------------------|--------------------|-------------------|--------------------5-3-2--------||
Eb||--(0)---------------|--(0)---------------|--(0)--------------|--------------------------5-3-0--||

Chorus
eb||--------0-------------0-------------0-------------0------||
Bb||------0---0---------0---0---------3---3---------0---0----||
Gb||----0-------0-----0-------0-----2-------2-----0-------0--||
Db||--2---------------------------0--------------------------||
Ab||----------------3----------------------------------------||
Eb||--------------------------------------------0------------||

eb||--------0-------------0-------------0-------------0------||
Bb||------0---0---------0---0---------3---3---------0---0----||
Gb||----0-------0-----0-------0-----2-------2-----0-------0--||
Db||--2---------------------------0--------------------------||
Ab||----------------3----------------------------------------||
Eb||--------------------------------------------3------------||

eb||--------0-------------0-------------0-------||
Bb||------0---0---------0---0---------3---3-----||
Gb||----0-------0-----0-------0-----2-------2---||
Db||--2---------------------------0-------------||
Ab||----------------3---------------------------||
Eb||--------------------------------------------||

eb||--------0-------------0-------------0-------------0------||
Bb||------0---0---------0---0---------3---3---------0---0----||
Gb||----0-------0-----0-------0-----2-------2-----0-------0--||
Db||--2---------------------------0--------------------------||
Ab||----------------3----------------------------------------||
Eb||--------------------------------------------0------------||

eb||--------0-------------0-------------0-------------0------||
Bb||------0---0---------0---0---------3---3---------0---0----||
Gb||----0-------0-----0-------0-----2-------2-----0-------0--||
Db||--2---------------------------0--------------------------||
Ab||----------------3----------------------------------------||
Eb||--------------------------------------------3------------||

eb||--------0-------------0-------------0-------||
Bb||------0---0---------0---0---------3---3-----||
Gb||----0-------0-----0-------0-----2-------2---||
Db||--2---------------------------0-------------||
Ab||----------------3---------------------------||
Eb||--------------------------------------------||

Outro

eb||---7---7---7---7----|---5---5---5---5----|---3---3---3---3----|---2----3----5---||
Bb||-----8---8---8---8--|-----7---7---7---7--|-----5---5---5---5--|---3----5----7---||
Gb||--------------------|--------------------|--------------------|-----------------||
Db||--------------------|--------------------|--------------------|-----------------||
Ab||--------------------|--------------------|--------------------|-----------------||
Eb||--(0)---------------|--(0)---------------|--(0)---------------|--(0)--(0)--(0)--||
                                                                     
eb||---7---7---7---7----|---5---5---5---5----|---3---3---3---3----|---3---3---3---3----||
Bb||-----8---8---8---8--|-----7---7---7---7--|-----5---5---5---5--|-----5---5---5---5--||
Gb||--------------------|--------------------|--------------------|--------------------||
Db||--------------------|--------------------|--------------------|---Fading out.....--||
Ab||--------------------|--------------------|--------------------|--------------------||
Eb||--(0)---------------|--(0)---------------|--(0)---------------|--(0)---------------||





Comments


Popular Kamelot tabs & chords
Epilogue Chords
Ne Pleure Pas Chords
Descent Of The Archangel Tabs
Iii Ways To Epica Tab Intro Tabs
Karma 1 Tabs
Mourning Star Tabs
Siege Intro 1 Tabs
The Human Stain Tabs
The Inquisitor Tabs
Anthem Ukulele


Song lyrics



↑ Back to top | Tablatures and chords are parodies/interpretations of the original songs. You may use it for private study, scholarship, research or language learning purposes only
© 2014 AZChords.com Contact us | Privacy policy | DMCA | Add/correct tabs | Request tabs | Top 50 tabs