>
 >
A Sailorman's Hymn

A Sailorman's Hymn Bass Tabs

Kamelot - A Sailorman's Hymn chords, tabs, tablatures, lyrics

Guitar lessons | Add/correct | Request | Top 50 tabs Artists:  A B C D E F G H I J K L M N O P Q R S T U V W X Y Z 0-9

A Sailorman's Hymn Bass Tabs – Kamelot

CD, Sheet music, Poster

Do you like A Sailorman's Hymn? Share with your friends now
Bass TabsTabsTabs v2

A SAILORMAN'S HYMN (Bassline)
As recorded by Kamelot


	



Gtr I (E A D G B E) - 'Piano'
Gtr II (E A D G) - 'Picked Bass'

  Q=150
 3/4
  Gtr II
  H.        H.        H.        Q  H      H.        H.
|---------|---------|---------|---------|---------|-------|
|-2-------|-2-------|-2-------|---------|---------|-------|
|---------|---------|---------|-3--5----|-7-------|-7-----|
|---------|---------|---------|---------|---------|-------|


  Gtr I
  W          W           E  E H      E  E H      E  E H      W
|---------|------------|----3-7----|------5----|------3----|----------|
|---------|------------|-----------|----7------|----5------|----------|
|---------|------------|-----------|-----------|-----------|----------|
|---------|------------|-2---------|-----------|-----------|----------|
|---------|------------|-----------|-5---------|-3---------|----------|
|---------|------------|-----------|-----------|-----------|----------|
|
| Gtr II
| H.        +H.          H.          H.          H.          Q   H
|---------|------------|-----------|-----------|-----------|----------|
|---------|------------|-----------|-----------|-----------|----------|
|-7-------|-(7)--------|-7---------|-7---------|-7---------|----------|
|---------|------------|-----------|-----------|-----------|-8--10----|


   E  E H       E  E H       E  E H        H.         H.         H.
|-----3-7----|-------5----|-------3----|---7-------|--7-------|--5-----|
|------------|-----7------|-----5------|---8-------|--8-------|--7-----|
|------------|------------|------------|-----------|----------|--------|
|--2---------|------------|------------|-----------|----------|--------|
|------------|--5---------|--3---------|-----------|----------|--------|
|------------|------------|------------|-----------|----------|--------|
|
|  H.           H.           H.           +H.         H.         H.
|------------|------------|------------|-----------|----------|--------|
|------------|------------|------------|-----------|----------|--------|
|------------|------------|------------|-----------|----------|--------|
|-12---------|-12---------|-12---------|-(12)------|-12-------|-12-----|


   H.        H.           H.         H.         H.         +H.
|--3-------|-2---------|----------|----------|----------|---------|
|--5-------|-3---------|-12-------|-10-------|--8-------|--(8)----|
|----------|-----------|-12-------|-11-------|--9-------|--(9)----|
|----------|-----------|----------|----------|----------|---------|
|----------|-----------|----------|----------|----------|---------|
|----------|-----------|----------|----------|----------|---------|
|
|  H.        Q    H       H.         H.         H.         +H.
|----------|-----------|----------|----------|----------|---------|
|----------|-----------|----------|----------|----------|---------|
|----------|-----------|----------|----------|----------|---------|
|-12-------|-8---10----|-12-------|-12-------|-12-------|-(12)----|


   E  E H       E  E H       E  E H      W             E  E H       E  E H
|-------7----|-------5----|-------3----|------------|-----3-7----|-------5----|
|-----8------|-----7------|-----5------|------------|------------|-----7------|
|------------|------------|------------|------------|------------|------------|
|------------|------------|------------|------------|--2---------|------------|
|--7---------|--5---------|--3---------|------------|------------|--5---------|
|------------|------------|------------|------------|------------|------------|
|
|  H.           H.           H.          Q   H         H.           H.
|------------|------------|------------|------------|------------|------------|
|------------|------------|------------|------------|------------|------------|
|------------|------------|------------|------------|------------|------------|
|-12---------|-12---------|-12---------|-8--10------|-12---------|-12---------|


   E  E H       +H.        H.        +H.        +H.        H      Q
|-------3----|--(3)------|-7-------|-(7)------|-(7)------|-5-----10--|
|-----5------|-----------|-8-------|-(8)------|-(8)------|-7-----12--|
|------------|-----------|---------|----------|----------|-----------|
|------------|-----------|---------|----------|----------|-----------|
|--3---------|-----------|---------|----------|----------|-----------|
|------------|-----------|---------|----------|----------|-----------|
|
|  H.           +H.        H.        +H.        +H.        H.
|------------|-----------|---------|----------|----------|-----------|
|------------|-----------|---------|----------|----------|-----------|
|------------|-----------|---------|----------|----------|-----------|
|-12---------|-(12)------|-8-------|-(8)------|-(8)------|-5---------|


   H.         +H.         +H.         Q    Q   Q     H.         +H.
|----------|-----------|-----------|----------10--|-12-------|-(12)----|
|-12-------|-(12)------|-(12)------|-10---12--12--|-12-------|-(12)----|
|-12-------|-(12)------|-(12)------|-11---12------|----------|---------|
|----------|-----------|-----------|--------------|----------|---------|
|----------|-----------|-----------|--------------|----------|---------|
|----------|-----------|-----------|--------------|----------|---------|
|
|  H.         +H.         +H.         H.             H.         +H.
|----------|-----------|-----------|--------------|----------|---------|
|----------|-----------|-----------|--------------|----------|---------|
|--3-------|--(3)------|--(3)------|--0-----------|--3-------|--(3)----|
|----------|-----------|-----------|--------------|----------|---------|


   +H.         +H      Q     H.         +H.         H.         H.
|-(12)------|-(12)----14--|-15-------|-(15)------|-17-------|-19-----|
|-(12)------|-(12)----15--|-17-------|-(17)------|-19-------|-20-----|
|-----------|-------------|----------|-----------|----------|--------|
|-----------|-------------|----------|-----------|----------|--------|
|-----------|-------------|----------|-----------|----------|--------|
|-----------|-------------|----------|-----------|----------|--------|
|
|  +H.         +H      Q     H.         +H.         H.         H.
|-----------|-------------|----------|-----------|----------|--------|
|-----------|----------4--|--5-------|--(5)------|--7-------|--9-----|
|--(3)------|--(3)--------|----------|-----------|----------|--------|
|-----------|-------------|----------|-----------|----------|--------|


   Q    Q   Q     Q    Q   Q     Q    Q   Q
|--------------|--------------|--------------|
|--------------|--------------|--------------|
|-24---21------|-21---21------|-23---23------|
|-21-------21--|-21-------21--|-24-------24--|
|-22-----------|-22-----------|-24-----------|
|-24-----------|-20-----------|-22-----------|
|
|  H.             H.             H.
|--------------|--------------|--------------|
|--------------|--------------|--------------|
|--------------|--------------|--------------|
|--0-----------|--8-----------|-10-----------|


   Q    E  E  E  E    Q    Q   Q     Q    Q   Q
|------------------|--------------|--------------|
|---------------17-|--------------|--------------|
|-21---------16----|-24---21------|-21---21------|
|-21------17-------|-21-------21--|-21-------21--|
|-22---19----------|-22-----------|-22-----------|
|-24---------------|-24-----------|-20-----------|
|
|  H.                 H.             H.
|------------------|--------------|--------------|
|------------------|--------------|--------------|
|------------------|--------------|--------------|
|-12---------------|--0-----------|--8-----------|


   Q    Q   Q     Q   E E  E  E    Q    Q   Q
|--------------|--------7-15-19-|--------------|
|--------------|-12---8---------|--------------|
|-23---23------|-12-------------|-24---21------|
|-24-------24--|-12-------------|-21-------21--|
|-24-----------|-10-------------|-22-----------|
|-22-----------|----------------|-24-----------|
|
|  H.             H.               H.
|--------------|----------------|--------------|
|--------------|----------------|--------------|
|--------------|----------------|--------------|
|-10-----------|--3-------------|--0-----------|


   Q    Q   Q     Q    Q   Q     Q    E  E  E  E
|--------------|--------------|------------------|
|--------------|--------------|---------------17-|
|-21---21------|-23---23------|-21---------16----|
|-21-------21--|-24-------24--|-21------17-------|
|-22-----------|-24-----------|-22---19----------|
|-20-----------|-22-----------|-24---------------|
|
|  H.             H.             H.
|--------------|--------------|------------------|
|--------------|--------------|------------------|
|--3-----------|--5-----------|--7---------------|
|--------------|--------------|------------------|


   Q    Q   Q     Q    Q   Q     H.
|--------------|--------------|----------|
|--------------|--------------|----------|
|-24---21------|-21---21------|-23-------|
|-21-------21--|-21-------21--|-24-------|
|-22-----------|-22-----------|-24-------|
|-24-----------|-20-----------|-22-------|
|
|  H.             H.             H.
|--------------|--------------|----------|
|--------------|--------------|----------|
|--------------|--------------|----------|
|--0-----------|--8-----------|-10-------|


   E  E H       E  E H       E  E H
|-----3-7----|-------5----|-------3----|
|-------8----|-----7-7----|-----5-5----|
|------------|------------|------------|
|--2---------|------------|------------|
|------------|--5---------|--3---------|
|------------|------------|------------|
|
|  H.           H.           H.
|------------|------------|------------|
|------------|------------|------------|
|------------|------------|------------|
|-12---------|-12---------|-12---------|


  W           E  E H       E  E H       E  E H        W          H.
|----------|-----3-7----|-------5----|-------3----|-----------|--7-----|
|----------|-------8----|-----7-7----|-----5-5----|-----------|--8-----|
|----------|------------|------------|------------|-----------|--------|
|----------|--2---------|------------|------------|-----------|--------|
|----------|------------|--5---------|--3---------|-----------|--------|
|----------|------------|------------|------------|-----------|--------|
|
| Q   H       H.           H.           H.           +H.         H.
|----------|------------|------------|------------|-----------|--------|
|----------|------------|------------|------------|-----------|--------|
|----------|------------|------------|------------|-----------|--------|
|-8--10----|-12---------|-12---------|-12---------|-(12)------|-12-----|


   H.         H.        H.           H.         H.         H.
|--5-------|--3-------|-2---------|----------|----------|--------|
|--7-------|--5-------|-3---------|-12-------|-10-------|--8-----|
|----------|----------|-----------|-12-------|-11-------|--9-----|
|----------|----------|-----------|----------|----------|--------|
|----------|----------|-----------|----------|----------|--------|
|----------|----------|-----------|----------|----------|--------|
|
|  H.         H.        Q    H       H.         H.         H.
|----------|----------|-----------|----------|----------|--------|
|----------|----------|-----------|----------|----------|--------|
|----------|----------|-----------|----------|----------|--------|
|-12-------|-12-------|-8---10----|-12-------|-12-------|-12-----|


   +H.         H.         H.         H.        H.           H.
|-----------|--7-------|--5-------|--3-------|-2---------|--------|
|--(8)------|--8-------|--7-------|--5-------|-3---------|-12-----|
|--(9)------|----------|----------|----------|-----------|-12-----|
|-----------|----------|----------|----------|-----------|--------|
|-----------|----------|----------|----------|-----------|--------|
|-----------|----------|----------|----------|-----------|--------|
|
|  +H.         H.         H.         H.        Q    H       H.
|-----------|----------|----------|----------|-----------|--------|
|-----------|----------|----------|----------|-----------|--------|
|-----------|----------|----------|----------|-----------|--------|
|-(12)------|-12-------|-12-------|-12-------|-8---10----|-12-----|


   H.         H.         +H.        H.        +H.        +H.
|----------|----------|-----------|-7-------|-(7)------|-(7)----|
|-10-------|--8-------|--(8)------|---------|----------|--------|
|-11-------|--9-------|--(9)------|---------|----------|--------|
|----------|----------|-----------|---------|----------|--------|
|----------|----------|-----------|---------|----------|--------|
|----------|----------|-----------|---------|----------|--------|
|
|  H.         H.         +H.        H.        +H.        +H.
|----------|----------|-----------|---------|----------|--------|
|----------|----------|-----------|---------|----------|--------|
|----------|----------|-----------|---------|----------|--------|
|-12-------|-12-------|-(12)------|-8-------|-(8)------|-(8)----|


  H      Q     H.         +H.         +H.         Q    Q   Q     H.
|-5-----10--|----------|-----------|-----------|----------10--|-12-----|
|-----------|-12-------|-(12)------|-(12)------|-10---12------|--------|
|-----------|----------|-----------|-----------|--------------|--------|
|-----------|----------|-----------|-----------|--------------|--------|
|-----------|----------|-----------|-----------|--------------|--------|
|-----------|----------|-----------|-----------|--------------|--------|
|
| H.           H.         +H.         +H.         H.             H.
|-----------|----------|-----------|-----------|--------------|--------|
|-----------|----------|-----------|-----------|--------------|--------|
|-----------|--3-------|--(3)------|--(3)------|--0-----------|--3-----|
|-5---------|----------|-----------|-----------|--------------|--------|


   +H.         +H.         +H      Q     H.         +H.         H.
|-(12)------|-(12)------|-(12)----14--|-15-------|-(15)------|-17-----|
|-----------|-----------|-------------|----------|-----------|--------|
|-----------|-----------|-------------|----------|-----------|--------|
|-----------|-----------|-------------|----------|-----------|--------|
|-----------|-----------|-------------|----------|-----------|--------|
|-----------|-----------|-------------|----------|-----------|--------|
|
|  +H.         +H.         +H      Q     H.         +H.         H.
|-----------|-----------|-------------|----------|-----------|--------|
|-----------|-----------|----------4--|--5-------|--(5)------|--7-----|
|--(3)------|--(3)------|--(3)--------|----------|-----------|--------|
|-----------|-----------|-------------|----------|-----------|--------|


   H.        H.        H.         H.         H.        H.
|-19-------|---------|---------|----------|----------|-------|
|----------|---------|---------|----------|----------|-------|
|----------|-4-------|---------|--2-------|----------|-4-----|
|----------|-2-------|-5-------|--0-------|----------|-2-----|
|----------|---------|-3-------|----------|--2-------|-------|
|----------|---------|---------|----------|--0-------|-------|
|
|  H.        H.        H.         H.         H.        H.
|----------|---------|---------|----------|----------|-------|
|--9-------|---------|---------|----------|----------|-------|
|----------|---------|---------|----------|----------|-------|
|----------|-0-------|-8-------|-10-------|-12-------|-0-----|


  H.         H.        H.        H.        H.        H.
|---------|----------|---------|---------|---------|-------|
|---------|----------|---------|---------|---------|-------|
|---------|--2-------|---------|-4-------|---------|-2-----|
|-5-------|--0-------|---------|-2-------|-5-------|-0-----|
|-3-------|----------|-5-------|---------|-3-------|-------|
|---------|----------|-3-------|---------|---------|-------|
|
| H.         H.        H.        H.        H.        H.
|---------|----------|---------|---------|---------|-------|
|---------|----------|---------|---------|---------|-------|
|---------|----------|---------|---------|-3-------|-5-----|
|-8-------|-10-------|-3-------|-0-------|---------|-------|


  H.        H.        H.         H.        Q  Q   Q     Q  Q   Q
|---------|---------|---------|----------|-3--5---7---|-8--7---5---|
|---------|---------|---------|----------|------------|------------|
|---------|-4-------|---------|--2-------|------------|------------|
|---------|-2-------|-5-------|--0-------|------------|------------|
|-2-------|---------|-3-------|----------|------------|------------|
|-0-------|---------|---------|----------|------------|------------|
|
| H.        H.        H.         H.        Q  E E E E   Q  E E E E
|---------|---------|---------|----------|------------|------------|
|---------|---------|---------|----------|------------|------------|
|-7-------|---------|---------|----------|-0--0-0-0-0-|------------|
|---------|-0-------|-8-------|-10-------|------------|-8--8-8-8-8-|


  H      Q     H.            W            W            W            W
|-3------5---|-------------|------------|------------|------------|------------|
|------------|-5-----------|------------|------------|------------|------------|
|------------|-------------|------------|------------|------------|------------|
|------------|-------------|------------|------------|------------|------------|
|------------|-------------|------------|------------|------------|------------|
|------------|-------------|------------|------------|------------|------------|
|
| Q  E E E E   Q   E E E E   Q  E E E E   Q  E E E E   Q  E E E E   Q  E E E E
|------------|-------------|------------|------------|------------|------------|
|------------|-------------|------------|------------|------------|------------|
|------------|-------------|-0--0-0-0-0-|-3--3-3-3-3-|------------|------------|
|-3--3-3-3-3-|-0---0-0-0-0-|------------|------------|-3--3-3-3-3-|-0--0-0-0-0-|


  Q  Q   Q     Q  Q   Q     H      Q     H.            W            W
|-3--5---7---|-8--7---5---|-3------5---|-------------|------------|------------|
|------------|------------|------------|-5-----------|------------|------------|
|------------|------------|------------|-------------|------------|------------|
|------------|------------|------------|-------------|------------|------------|
|------------|------------|------------|-------------|------------|------------|
|------------|------------|------------|-------------|------------|------------|
|
| Q  E E E E   Q  E E E E   Q  E E E E   Q   E E E E   Q  E E E E   Q  E E E E
|------------|------------|------------|-------------|------------|------------|
|------------|------------|------------|-------------|------------|------------|
|-0--0-0-0-0-|-3--3-3-3-3-|------------|-------------|-0--0-0-0-0-|-3--3-3-3-3-|
|------------|------------|-3--3-3-3-3-|-0---0-0-0-0-|------------|------------|


  W            W            Q  Q   Q     Q  Q   Q     H      Q     H.
|------------|------------|-3--5---7---|-8--7---5---|-3------5---|-------------|
|------------|------------|------------|------------|------------|-5-----------|
|------------|------------|------------|------------|------------|-------------|
|------------|------------|------------|------------|------------|-------------|
|------------|------------|------------|------------|------------|-------------|
|------------|------------|------------|------------|------------|-------------|
|
| Q  E E E E   Q  E E E E   Q  E E E E   Q  E E E E   Q  E E E E   Q   E E E E
|------------|------------|------------|------------|------------|-------------|
|------------|------------|------------|------------|------------|-------------|
|------------|------------|-0--0-0-0-0-|-3--3-3-3-3-|------------|-------------|
|-3--3-3-3-3-|-0--0-0-0-0-|------------|------------|-3--3-3-3-3-|-0---0-0-0-0-|


  W            W            W            H.        +H.        +H.
|------------|------------|------------|-7-------|-(7)------|-(7)----|
|------------|------------|------------|-8-------|-(8)------|-(8)----|
|------------|------------|------------|---------|----------|--------|
|------------|------------|------------|---------|----------|--------|
|------------|------------|------------|---------|----------|--------|
|------------|------------|------------|---------|----------|--------|
|
| Q  E E E E   Q  E E E E   Q  E E E E   H.        +H.        +H.
|------------|------------|------------|-9-------|-(9)------|-(9)----|
|------------|------------|------------|---------|----------|--------|
|-0--0-0-0-0-|-3--3-3-3-3-|------------|---------|----------|--------|
|------------|------------|-3--3-3-3-3-|---------|----------|--------|


   Q    Q   Q     H.         +H.         +H.         +H.         +H.
|-14---15--17--|-19-------|-(19)------|-(19)------|-(19)------|-(19)----|
|--------------|-20-------|-(20)------|-(20)------|-(20)------|-(20)----|
|--------------|----------|-----------|-----------|-----------|---------|
|--------------|----------|-----------|-----------|-----------|---------|
|--------------|----------|-----------|-----------|-----------|---------|
|--------------|----------|-----------|-----------|-----------|---------|
|
| +H.             H.         +H.         +H.         +H.         +H.
|-(9)----------|--9-------|--(9)------|--(9)------|--(9)------|--(9)----|
|--------------|----------|-----------|-----------|-----------|---------|
|--------------|----------|-----------|-----------|-----------|---------|
|--------------|----------|-----------|-----------|-----------|---------|


  H.        H.         H.         H.        H.        H.
|---------|---------|----------|----------|---------|-------|
|---------|---------|----------|----------|---------|-------|
|-4-------|---------|--2-------|----------|-4-------|-------|
|-2-------|-5-------|--0-------|----------|-2-------|-5-----|
|---------|-3-------|----------|--2-------|---------|-3-----|
|---------|---------|----------|--0-------|---------|-------|
|
| H.        H.         H.         H.        H.        H.
|---------|---------|----------|----------|---------|-------|
|---------|---------|----------|----------|---------|-------|
|---------|---------|----------|----------|---------|-------|
|-0-------|-8-------|-10-------|-12-------|-0-------|-8-----|


   H.        H.        H.        H.        H.        H.
|----------|---------|---------|---------|---------|-------|
|----------|---------|---------|---------|---------|-------|
|--2-------|---------|-4-------|---------|-2-------|-------|
|--0-------|---------|-2-------|-5-------|-0-------|-------|
|----------|-5-------|---------|-3-------|---------|-2-----|
|----------|-3-------|---------|---------|---------|-0-----|
|
|  H.        H.        H.        H.        H.        H.
|----------|---------|---------|---------|---------|-------|
|----------|---------|---------|---------|---------|-------|
|----------|---------|---------|-3-------|-5-------|-7-----|
|-10-------|-3-------|-0-------|---------|---------|-------|


  H.        H.         H.        H.        H.        H.
|---------|---------|----------|---------|---------|-------|
|---------|---------|----------|---------|---------|-------|
|-4-------|---------|--2-------|-4-------|-4-------|-------|
|-2-------|-5-------|--0-------|-2-------|-2-------|-5-----|
|---------|-3-------|----------|---------|---------|-3-----|
|---------|---------|----------|---------|---------|-------|
|
| H.        H.         H.        H.        H.        H.
|---------|---------|----------|---------|---------|-------|
|---------|---------|----------|---------|---------|-------|
|---------|---------|----------|---------|---------|-------|
|-0-------|-8-------|-10-------|-0-------|-0-------|-8-----|


   H.         H.        H.        H.         H.        H.
|----------|----------|---------|---------|----------|-------|
|----------|----------|---------|---------|----------|-------|
|--2-------|----------|-4-------|---------|--2-------|-------|
|--0-------|----------|-2-------|-5-------|--0-------|-------|
|----------|--2-------|---------|-3-------|----------|-5-----|
|----------|--0-------|---------|---------|----------|-3-----|
|
|  H.         H.        H.        H.         H.        H.
|----------|----------|---------|---------|----------|-------|
|----------|----------|---------|---------|----------|-------|
|----------|----------|---------|---------|----------|-------|
|-10-------|-12-------|-0-------|-8-------|-10-------|-3-----|


  H.        H.        H.        H.        H.        H.
|---------|---------|---------|---------|---------|-------|
|---------|---------|---------|---------|---------|-------|
|-4-------|---------|-2-------|---------|-4-------|-------|
|-2-------|-5-------|-0-------|---------|-2-------|-5-----|
|---------|-3-------|---------|-2-------|---------|-3-----|
|---------|---------|---------|-0-------|---------|-------|
|
| H.        H.        H.        H.        H.        H.
|---------|---------|---------|---------|---------|-------|
|---------|---------|---------|---------|---------|-------|
|---------|-3-------|-5-------|-7-------|---------|-------|
|-0-------|---------|---------|---------|-0-------|-8-----|


   H.         H.        +H.        +H.        Q  Q  Q    H.
|----------|----------|----------|----------|----------|-------|
|----------|--5-------|-(5)------|-(5)------|-------3--|-5-----|
|--2-------|--4-------|-(4)------|-(4)------|-4--5-----|-------|
|--0-------|----------|----------|----------|----------|-------|
|----------|----------|----------|----------|----------|-------|
|----------|----------|----------|----------|----------|-------|
|
|  H.         H.         H.         H.        Q  Q  Q    H.
|----------|----------|----------|----------|----------|-------|
|----------|----------|----------|----------|----------|-------|
|----------|----------|----------|----------|-------0--|-2-----|
|-10-------|-12-------|-12-------|-12-------|-2--3-----|-------|


            Q=120     Q=110
  H.        H.        +H.        H.        +H.
|---------|---------|----------|---------|--------*|
|-3-------|---------|----------|---------|--------*|
|---------|-4-------|-(4)------|-4-------|-(4)----*|
|---------|---------|----------|-2-------|-(2)----*|
|---------|---------|----------|---------|--------*|
|---------|---------|----------|---------|--------*|
|
| H.        H.        +H.        H.        +H.
|---------|---------|----------|---------|--------*|
|---------|---------|----------|-2-------|-(2)----*|
|-0-------|---------|----------|---------|--------*|
|---------|-2-------|-(2)------|-0-------|-(0)----*|



Duration Legend
---------------
W - whole; H - half; Q - quarter; E - 8th; S - 16th; T - 32nd; X - 64th; a - acciaccatura
+ - note tied to previous; . - note dotted; .. - note double dotted
Uncapitalized letters represent notes that are staccato (1/2 duration)
Irregular groupings are notated above the duration line
Duration letters will always appear directly above the note/fret number it represents the
duration for.  Duration letters with no fret number below them represent rests.  Multi-
bar rests are notated in the form Wxn, where n is the number of bars to rest for.  Low
melody durations appear below the staff

Tablature Legend
----------------
 h   - hammer-on
 p   - pull-off
 b   - bend
 pb  - pre-bend
 r   - bend release (if no number after the r, then release immediately)
 /\  - slide into or out of (from/to "nowhere")
 s   - legato slide
 S   - shift slide
 - natural harmonic
[n]  - artificial harmonic
n(n) - tapped harmonic
 ~   - vibrato
 tr  - trill
 T   - tap
 TP  - trem. picking
 PM  - palm muting
\n/  - tremolo bar dip; n = amount to dip
 \n  - tremolo bar down
 n/  - tremolo bar up
/n\  - tremolo bar inverted dip
 =   - hold bend; also acts as connecting device for hammers/pulls
 <> - volume swell (louder/softer)
 x   - on rhythm slash represents muted slash
 o   - on rhythm slash represents single note slash

Misc Legend
-----------
 |  - bar
||  - double bar
||o - repeat start
o|| - repeat end
*|  - double bar (ending)
 :  - bar (freetime)
 $  - Segno
 &  - Coda
Tempo markers -  = BPM(8/16=s8/s16), where s8 = swing 8ths, s16 = swing 16ths





Comments


Popular Kamelot tabs & chords
March Of Mephisto Bass Tabs
On The Coldest Winter Night 2 Bass Tabs
Can You Remember Chords
Center Of The Universe Chords
Forever Tabs
Forever 1 Tabs
Forever 2 Tabs
Haunting Somewhere In Time 1 Tabs
March Of Mephisto Tabs
The Fourth Legacy Tabs


Song lyrics



↑ Back to top | Tablatures and chords are parodies/interpretations of the original songs. You may use it for private study, scholarship, research or language learning purposes only
© 2014 AZChords.com Contact us | Privacy policy | DMCA | Add/correct tabs | Request tabs | Top 50 tabs