>
 >
Ruby 2

Ruby 2 Bass Tabs

Kaiser Chiefs - Ruby 2 chords, tabs, tablatures, lyrics

Guitar lessons | Add/correct | Request | Top 50 tabs Artists:  A B C D E F G H I J K L M N O P Q R S T U V W X Y Z 0-9

Ruby 2 Bass Tabs – Kaiser Chiefs

CD, Sheet music, Poster

Do you like Ruby 2? Share with your friends now
Bass TabsBass Tabs v2Bass Tabs v3Bass Tabs v4Bass Tabs v5Bass Tabs v6ChordsChords v2Chords v3TabsTabs v2Tabs v3Tabs v4Tabs v5Tabs v6Tabs v7Tabs v8Ukulele
Kaiser Chiefs  Ruby


Intro:							(Guitar only)
G|----------------|----------------|----------------|----------------|
D|----------------|----------------|----------------|----------------|
A|1--14-----------|6-6-6---6-6-6---|1--14-----------|6---4---3---1---|
E|--------1--14---|----------------|--------1--14---|----------------|

							(Guitar only)
G|----------------|----------------|----------------|----------------|
D|----------------|----------------|----------------|----------------|
A|1--14-----------|6-6-6---6-6-6---|1--14-----------|6---4---3---1---|
E|--------1--14---|----------------|--------1--14---|----------------|


G|----------------|
D|------------1---|
A|----------------|
E|4---3---1-------|

Verse:
G|----------------|----------------|----------3-----|----------------|
D|----------------|3-------------1-|---35-------5-3-|----------------|
A|1-------------4-|----------------|3---------------|6-------4-6-4---|
E|----------------|----------------|----------------|------6-------1-|


G|----------------|-------1--------|----------5-3---|----------------|
D|--------------1-|3---------3-1---|---35---------5-|----------------|
A|1-----------4---|--------------1-|3---------------|6---6-4-6--6--4-|
E|----------------|----------------|----------------|----------------|


G|----------------|
D|----------------|
A|6---6-4-6-------|
E|----------------|

Chorus:
G|----------------|----------------|----------------|----------------|
D|----------------|----------------|----------------|----------------|
A|1-----4-8-----3-|6---6---6-6-6-6-|1----4-8------3-|6---6--66-6-6-6-|
E|----------------|----------------|----------------|----------------|


G|----------------|----------------|----------------|----------------|
D|----------------|----------------|----------------|----------------|
A|1--14--3--------|6---4---3---1---|1--14--3--------|6---6--66-6-6-6-|
E|--------1--14--3|----------------|--------1--14---|----------------|

Verse:
G|----------------|----------------|----------3-----|----------------|
D|----------------|3-------------1-|---35-------5-3-|----------------|
A|1-------------4-|----------------|3---------------|6-------4-6-4---|
E|----------------|----------------|----------------|------6-------1-|


G|----------------|-------5--8-5---|----------3-----|----------------|
D|--------------1-|3-------------6-|---35-------5-3-|----------------|
A|1-----------4---|----------------|3---------------|6---6--46-6-6-6-|
E|----------------|----------------|----------------|----------------|


G|----------------|
D|----------------|
A|6-6-6-4-6-------|
E|----------------|

Chorus:
G|----------------|----------------|----------------|----------------|
D|----------------|----------------|----------------|----------------|
A|1-----4-8-----3-|6---6--66-6-6-6-|1----4-8------3-|6---6--66-6-6-6-|
E|----------------|----------------|----------------|----------------|


G|----------------|----------------|----------------|----------------|
D|----------------|----------------|----------------|----------------|
A|1--14--3--------|6---4---3---1---|1--14--3--------|6---6---7-7-7-7-|
E|--------1--14--3|----------------|--------1--14---|----------------|

Bridge:
G|----------------|----------------|----------------|----8-------9---|
D|----------------|----------------|----------------|----------------|
A|8---------------|4---------------|1---------------|6-------7-------|
E|----------------|----------------|----------------|----------------|


G|----------------|------------6-5-|----------------|----------------|
D|------------10\-|----------------|----------------|----------------|
A|8---------------|4---------------|1-----------1-4/|6---6---7-7-7-7-|
E|----------------|----------------|----------------|----------------|


G|----------------|----------------|----------------|----------------|
D|----------------|----------------|----------------|----------------|
A|----------------|4---4-4-4---4-4-|1---1-1-1---1-1-|6-6-6-6-7-7-7-7-|
E|1---1-1-1---1-1-|----------------|----------------|----------------|


G|----------------|----------------|----------------|----------------|
D|----------------|----------------|----------------|----------------|
A|----------------|4---4-4-4---4-4-|1---1-1-1---1-1-|6---6---7---7-7-|
E|1---1-1-1---1-1-|----------------|----------------|----------------|


G|----------------|----------------|
D|----------------|----------------|
A|7-7-7-7-7-7-7-7-|7-7-7-7-7-------|
E|----------------|----------------|

End Chorus:
G|----------------|----------------|----------------|----------------|
D|----------------|----------------|----------------|----------------|
A|1-----4-8-----3-|6---6--66-6-6-6-|1----4-8------3-|6---6--66-6-6-6-|
E|----------------|----------------|----------------|----------------|


G|----------------|----------------|----------------|----------------|
D|----------------|----------------|----------------|----------------|
A|1--14--3--------|6---4---3---1---|1--14--3--------|6---4---3---1---|
E|--------1--14--3|----------------|--------1--14---|----------------|


G|----------------|----------------|----------------|----------------|
D|----------------|----------------|----------------|----------------|
A|1--14--3--------|6---6-66-6-6-6-|1--14--3--------|6---6---7---7---|
E|--------1--14--3|----------------|--------1--14---|----------------|


G|----------------|
D|----------------|
A|8---------------|
E|----------------|


End





Comments


Popular Kaiser Chiefs tabs & chords
I Predict A Riot 1 Bass Tabs
I Predict A Riot 5 Bass Tabs
Ruby 1 Chords
Caroline, Yes Tabs
Good Days And Bad Days Tabs
Oh My God 2 Tabs
Remember Youre A Girl Tabs
Thank You Very Much Tabs
Boxing Champ Ukulele
Never Miss A Beat Ukulele


Song lyrics



↑ Back to top | Tablatures and chords are parodies/interpretations of the original songs. You may use it for private study, scholarship, research or language learning purposes only
© 2014 AZChords.com Contact us | Privacy policy | DMCA | Add/correct tabs | Request tabs | Top 50 tabs