» » »

Kaiser Chiefs, Ruby Tabs (ver.3)

Artists:  A B C D E F G H I J K L M N O P Q R S T U V W X Y Z # 

Ruby Tabs (ver.3)

Kaiser Chiefs Tabs
 Rating:
4/5 (4 votes)
Ruby lessons Tabs too difficult? Try these video lessons and learn fast
                Ruby

Kaiser Chiefs


Intro:

 
e|-------------------------------------------------------------------------|
B|-------------------------------------------------------------------------|
G|---10-10-8-8------10-10-8-8----------------------------------------------|
D|---10-10-8-8------10-10-8-8----------------------------------------------|
A|----8--8-6-6-------8--8-6-6----------------------------------------------|
E|-------------------------------------------------------------------------|

x2

E|-------------------------------------------------------------------------|
B|-------------------------------------------------------------------------|
G|-------------------------------------------------------------------------|
D|-------------------------------------------------------------------------|
A|----8-8-11--3-3-6-13------13---------------------------------------------|
E|----6-6-9---1-1-4-11------11---------------------------------------------|

E|-------------------------------------------------------------------------|
B|-------------------------------------------------------------------------|
G|-------------------------------------------------------------------------|
D|-------------------------------------------------------------------------|
A|----8-8-11--3-3-6-13-13-11-11--10-10-8-8---------------------------------|
E|----6-6-9---1-1-4-11-11--9--9---8--8-6-6---------------------------------|

E|-------------------------------------------------------------------------|
B|-------------------------------------------------------------------------|
G|-------------------------------------------------------------------------|
D|-------------------------------------------------------------------------|
A|----8-8-11--3-3-6-13------13---------------------------------------------|
E|----6-6-9---1-1-4-11------11---------------------------------------------|

E|-------------------------------------------------------------------------|
B|-------------------------------------------------------------------------|
G|-------------------------------------------------------------------------|
D|-------------------------------------------------------------------------|
A|----8-8-11--3-3-6-13-13-11-11--10-10-8-8---------------------------------|
E|----6-6-9---1-1-4-11-11--9--9---8--8-6-6---------------------------------|

Verse:

   Never    Romance   So Little   Occupying
E|-------------------------------------------------------------------------|
B|-2-----------------------------------------------------------------------|
G|-3---------2---------5-----------7---------------------------------------|
D|-3---------3---------6-----------8---------------------------------------|
A|-1---------3---------6-----------8---------------------------------------|
E|-----------1---------4-----------6---------------------------------------|

Chorus:

E|-------------------------------------------------------------------------|
B|-------------------------------------------------------------------------|
G|-------------------------------------------------------------------------|
D|-------------------------------------------------------------------------|
A|----8-8-11--3-3-6-13------13---------------------------------------------|
E|----6-6-9---1-1-4-11------11---------------------------------------------|

E|-------------------------------------------------------------------------|
B|-------------------------------------------------------------------------|
G|-------------------------------------------------------------------------|
D|-------------------------------------------------------------------------|
A|----8-8-11--3-3-6-13------13---------------------------------------------|
E|----6-6-9---1-1-4-11------11---------------------------------------------|

E|-------------------------------------------------------------------------|
B|-------------------------------------------------------------------------|
G|-------------------------------------------------------------------------|
D|-------------------------------------------------------------------------|
A|----8-8-11--3-3-6-13-13-11-11--10-10-8-8---------------------------------|
E|----6-6-9---1-1-4-11-11--9--9---8--8-6-6---------------------------------|

E|-------------------------------------------------------------------------|
B|-------------------------------------------------------------------------|
G|-------------------------------------------------------------------------|
D|-------------------------------------------------------------------------|
A|----8-8-11--3-3-6-13------13---------------------------------------------|
E|----6-6-9---1-1-4-11------11---------------------------------------------|


Verse: Again

E|-------------------------------------------------------------------------|
B|-2-----------------------------------------------------------------------|
G|-3---------2---------5-----------7---------------------------------------|
D|-3---------3---------6-----------8---------------------------------------|
A|-1---------3---------6-----------8---------------------------------------|
E|-----------1---------4-----------6---------------------------------------|

Chorus


E|-------------------------------------------------------------------------|
B|-------------------------------------------------------------------------|
G|-------------------------------------------------------------------------|
D|-------------------------------------------------------------------------|
A|----8-8-11--3-3-6-13------13---------------------------------------------|
E|----6-6-9---1-1-4-11------11---------------------------------------------|

E|-------------------------------------------------------------------------|
B|-------------------------------------------------------------------------|
G|-------------------------------------------------------------------------|
D|-------------------------------------------------------------------------|
A|----8-8-11--3-3-6-13------13---------------------------------------------|
E|----6-6-9---1-1-4-11------11---------------------------------------------|

E|-------------------------------------------------------------------------|
B|-------------------------------------------------------------------------|
G|-------------------------------------------------------------------------|
D|-------------------------------------------------------------------------|
A|----8-8-11--3-3-6-13-13-11-11--10-10-8-8---------------------------------|
E|----6-6-9---1-1-4-11-11--9--9---8--8-6-6---------------------------------|

E|-------------------------------------------------------------------------|
B|-------------------------------------------------------------------------|
G|-------------------------------------------------------------------------|
D|-------------------------------------------------------------------------|
A|----8-8-11--3-3-6-13------13---------------------------------------------|
E|----6-6-9---1-1-4-11------11---------------------------------------------|


Breakitdown:

  Could it be   Joking      Dont     Me 
E|-------------------------------------------------------------------------|
B|-------------------------------------------------------------------------|
G|--10---------------------------------------------------------------------|
D|--10-----------11----------8-------9-------10----------------------------|
A|--8------------11----------8-------9-------10----------------------------|
E|--8------------9-----------6-------7-------8-----------------------------|


Solo

E|-------------------------------------------------------------
B|-------------------------------------------------------------
G|-------------------------------------------------------------
D|-10-8-10-10-8-10-6-8-10-8-6-3-6-8-10-8-6-3-6-8-10-8-9--------
A|-------------------------------------------------------------
E|-------------------------------------------------------------

E|-------------------------------------------------------------
B|-------------------------------------------------------------
G|-------------------------------------------------------------
D|-10-8-10-10-8-10-6-8-10-8-6-3-6-8-10-8-6-3-6-8-10-8-9--------
A|-------------------------------------------------------------
E|-------------------------------------------------------------

Chorus:

E|-------------------------------------------------------------------------|
B|-------------------------------------------------------------------------|
G|-------------------------------------------------------------------------|
D|-------------------------------------------------------------------------|
A|----8-8-11--3-3-6-13------13---------------------------------------------|
E|----6-6-9---1-1-4-11------11---------------------------------------------|

E|-------------------------------------------------------------------------|
B|-------------------------------------------------------------------------|
G|-------------------------------------------------------------------------|
D|-------------------------------------------------------------------------|
A|----8-8-11--3-3-6-13------13---------------------------------------------|
E|----6-6-9---1-1-4-11------11---------------------------------------------|

E|-------------------------------------------------------------------------|
B|-------------------------------------------------------------------------|
G|-------------------------------------------------------------------------|
D|-------------------------------------------------------------------------|
A|----8-8-11--3-3-6-13-13-11-11--10-10-8-8---------------------------------|
E|----6-6-9---1-1-4-11-11--9--9---8--8-6-6---------------------------------|

E|-------------------------------------------------------------------------|
B|-------------------------------------------------------------------------|
G|-------------------------------------------------------------------------|
D|-------------------------------------------------------------------------|
A|----8-8-11--3-3-6-13------13---------------------------------------------|
E|----6-6-9---1-1-4-11------11---------------------------------------------|


Outro



E|-------------------------------------------------------------------------|
B|-------------------------------------------------------------------------|
G|-------------------------------------------------------------------------|
D|-------------------------------------------------------------------------|
A|----8-8-11--3-3-6-13------13---------------------------------------------|
E|----6-6-9---1-1-4-11------11---------------------------------------------|

E|-------------------------------------------------------------------------|
B|-------------------------------------------------------------------------|
G|-------------------------------------------------------------------------|
D|------------------------------------------13--14-15----------------------
A|----8-8-11--3-3-6-13------13--------------13--14-15----------------------|
E|----6-6-9---1-1-4-11------11--------------11--12-13----------------------|




Feel Free to comment.... 

Cheers,

Frank


         
            
Submit corrections

comments powered by Disqus
↑ Back to top | Kaiser Chiefs Tabs for Ruby. Lyrics for acoustic guitar and electric guitar. Tablatures and chords are parodies/interpretations of the original songs. You may use it for private study, scholarship, research or language learning purposes only