» » »

Ruby Bass

Artists:  A B C D E F G H I J K L M N O P Q R S T U V W X Y Z # 

Ruby Bass

(ver. 1)
Kaiser Chiefs Tabs
 Rating:
4/5 (4 votes)
    Ruby lessons Tabs too difficult? Try these video lessons and learn fast
                Kaiser Chiefs - Ruby

Standard Tuning
Verse is simplified but will sound correct when played in a band.

Intro:                      
G|-------------------------|----------------------|
D|-------------------------|----------------------|
A|----4-------6-6-6~-6-6-6~|-----4--------(Guitar)|
E|6-6---1-1-4--------------|-6-6---1-1-4----------|

G|-------------------------|----------------------|
D|-------------------------|----------------------|
A|----4-------6-6-6~-6-6-6~|-----4--------(Guitar)|
E|6-6---1-1-4--------------|-6-6---1-1-4----------|



Verse:
   
G|-------------------------------------------------|
D|-------------------------------------------------|
A|-1-1-3-1-3-1-------------3-3-3-3-4-5-6-6-6-6-6-6-|
E|-------------1-1-3-1-3-1-------------------------|

G|-------------------------------------------------|
D|-------------------------------------------------|
A|-1-1-3-1-3-1-------------3-3-3-3-4-5-6-6-6-6-6-6-|
E|-------------1-1-3-1-3-1-------------------------|

Chorus:

G|--------------------------------|--------------------------------|
D|--------------------------------|--------------------------------|
A|-1-1-1-1-8-8-8-8-6-6-6-6-6-6-6-6|-1-1-1-1-8-8-8-8-6-6-6-6-6-6-6-6|
E|--------------------------------|--------------------------------|

G|----------------------------------|----------------------------------|
D|----------------------------------|----------------------------------|
A|-----4\3----------6-6-4-4-3-3-2-2-|-1-1-4\3----------6-6-6-6-6-6-6-6-|
E|-6-6-----1-1-4\3------------------|---------1-1-4\3------------------|

(Verse)

(Chorus)
End of chorus: 

G|-----------------|
D|-----------------|
A|-6-6-6-6-7-7-7-7-|
E|-----------------|


Bridge:
    
G|------|--------|------|-----|
D|------|--------|------|-----|
A|-8~-8\|4~-4-3--|-1~-1/|6~-7~|X2
E|------|--------|------|-----|

G|----------------|----------------|----------------|----------------|
D|----------------|----------------|----------------|----------------|
A|----------------|4-4-4-4-4-4-4-4-|1-1-1-1-1-1-1-1-|6-6-6-6-7-7-7-7-|X2
E|1-1-1-1-1-1-1-1-|----------------|----------------|----------------|

G|----------------|---------|
D|----------------|---------|
A|8-8-8-8-8-8-8-8-|8-8-8-8-8|
E|----------------|---------|


End Chorus:

G|--------------------------------|--------------------------------|
D|--------------------------------|--------------------------------|
A|-1-1-1-1-8-8-8-8-6-6-6-6-6-6-6-6|-1-1-1-1-8-8-8-8-6-6-6-6-6-6-6-6|
E|--------------------------------|--------------------------------|

G|----------------------------------|----------------------------------|
D|----------------------------------|----------------------------------|
A|-----4\3----------6-6-4-4-3-3-2-2-|-1-1-4\3----------6-6-4-4-3-3-2-2-|
E|-6-6-----1-1-4\3------------------|---------1-1-4\3------------------|

G|-------------------------|---------------------------|
D|-------------------------|---------------------------|
A|1-1-4-------6-6-6~-6-6-6~|----4-------6-6-6-6-7-7-7-7|
E|------1-1-4--------------|6-6---1-1-4----------------|

G|----|
D|----|
A|-8~-|
E|----|

THE END
            
Submit corrections

↑ Back to top | Kaiser Chiefs Bass for Ruby. Lyrics for acoustic guitar and electric guitar. Tablatures and chords are parodies/interpretations of the original songs. You may use it for private study, scholarship, research or language learning purposes only