» » »

Just Surrender, Our Work Of Art Chords (ver.1)

Artists:  A B C D E F G H I J K L M N O P Q R S T U V W X Y Z # 

Our Work Of Art Chords (ver.1)

Just Surrender Tabs
 Rating:
4/5 (4 votes)
Our Work Of Art lessons Tabs too difficult? Try these video lessons and learn fast
1
                Tuning: Drop C# aka C#-G#-C#-F#-Bb-eb

Intro/Chorus: "Blood Stains Sheets..."
eb|---------------|
Bb|---------------|
F#|-----10--9--10-|
C#|-8-8--8--8---8-| x2
G#|-8-8--8--8---8-|
C#|-8-8--8--8---8-|

"Gotten myself into this time"
eb|---------------|
Bb|---------------|
F#|-----10--9--10-|
C#|-0-0--0--0---0-| x2
G#|-0-0--0--0---0-|
C#|-0-0--0--0---0-|

"I closed My Eyes..."
eb|---------------|
Bb|---------------|
F#|-----10--9--10-|
C#|-8-8--8--8---8-| x2
G#|-8-8--8--8---8-|
C#|-8-8--8--8---8-|

"If I could die..."
eb|-----------------------|
Bb|-----------------------|
F#|-----10--9--10------10-|
C#|-0-0--0--0---0--0-0--0-|
G#|-0-0--0--0---0--0-0--0-|
C#|-0-0--0--0---0--0-0--0-|


Distortion:
eb|----------------|-------------------------------|
Bb|----------------|-------------------------------|
F#|----------------|-------------------------------|
C#|-10-10-10-0-0-0-|-10-10-10-8-8--8-8--8-8--8-8-8-|
G#|-10-10-10-0-0-0-|-10-10-10-8-8--8-8--8-8--8-8-8-|
C#|-10-10-10-0-0-0-|-10-10-10-8-8--8-8--8-8--8-8-8-|
         x2

eb|----------------|------------------------------|
Bb|----------------|------------------------------|
F#|----------------|------------------------------|
C#|-10-10-10-0-0-0-|-10-10-10--8-8--8-8--8-8--8-8-|
G#|-10-10-10-0-0-0-|-10-10-10--8-8--8-8--8-8--8-8-|
C#|-10-10-10-0-0-0-|-10-10-10--8-8--8-8--8-8--8-8-|
         x2

eb|----------|
Bb|----------|
F#|----------|
C#|-10-10-10-|
G#|-10-10-10-|
C#|-10-10-10-|


Verse: "I Wish that I could walkaway.."
eb|---
Bb|---
F#|---
C#|-8-
G#|-8-
C#|-8-

"Guilt rests in my hand..."
eb|---------------------------------|
Bb|---------------------------------|
F#|---------------------------------|
C#|-0-0-0-0-0-0-0-0-0-0-0-0-0-0-0-0-|
G#|-0-0-0-0-0-0-0-0-0-0-0-0-0-0-0-0-|
C#|-0-0-0-0-0-0-0-0-0-0-0-0-0-0-0-0-|

"I know that it is for the better"
eb|---------------------------------|
Bb|---------------------------------|
F#|---------------------------------|
C#|-8-8-8-8-8-8-8-8-8-8-8-8-8-8-8-8-|
G#|-8-8-8-8-8-8-8-8-8-8-8-8-8-8-8-8-|
C#|-8-8-8-8-8-8-8-8-8-8-8-8-8-8-8-8-|

"I never said that I compromised"
eb|---------------------------------|
Bb|---------------------------------|
F#|---------------------------------|
C#|-0-0-0-0-0-0-0-0-0-0-0-0-0-0-0-0-|
G#|-0-0-0-0-0-0-0-0-0-0-0-0-0-0-0-0-|
C#|-0-0-0-0-0-0-0-0-0-0-0-0-0-0-0-0-|

"Between fact or Fiction"
eb|---------------------------------|
Bb|---------------------------------|
F#|---------------------------------|
C#|-8-8-8-8-8-8-8-8-8-8-8-8-8-8-8-8-|
G#|-8-8-8-8-8-8-8-8-8-8-8-8-8-8-8-8-|
C#|-8-8-8-8-8-8-8-8-8-8-8-8-8-8-8-8-|

"There's nothing better than this"
eb|---------------------------------|
Bb|---------------------------------|
F#|---------------------------------|
C#|-0-0-0-0-0-0-0-0-0-0-0-0-0-0-0-0-|
G#|-0-0-0-0-0-0-0-0-0-0-0-0-0-0-0-0-|
C#|-0-0-0-0-0-0-0-0-0-0-0-0-0-0-0-0-|

"Than you're with me"
eb|---------------------------------|
Bb|---------------------------------|
F#|---------------------------------|
C#|-8-8-8-8-8-8-8-8-8-8-8-8-8-8-8-8-|
G#|-8-8-8-8-8-8-8-8-8-8-8-8-8-8-8-8-|
C#|-8-8-8-8-8-8-8-8-8-8-8-8-8-8-8-8-|

"I could end this on seconds..."
eb|---------------------------------|
Bb|---------------------------------|
F#|---------------------------------|
C#|-0-0-0-0-0-0-0-0-0-0-0-0-0-0-0-0-|
G#|-0-0-0-0-0-0-0-0-0-0-0-0-0-0-0-0-|
C#|-0-0-0-0-0-0-0-0-0-0-0-0-0-0-0-0-|


Refrain: "Another seconds..."
eb|----------------------------------|
Bb|----------------------------------|
F#|------10-9------9-10------10-9----|
C#|-8-10------8-10------8-10-------0-|
G#|-8---------8---------8----------0-|
C#|-8---------8---------8----------0-|


Bridge: "It's a work of art..."
eb|---------------------------------|
Bb|---------------------------------|
F#|---------------------------------|
C#|-0-0-0-0-0-0-0-0-0-0-0-0-0-0-0-0-|
G#|-0-0-0-0-0-0-0-0-0-0-0-0-0-0-0-0-|
C#|-0-0-0-0-0-0-0-0-0-0-0-0-0-0-0-0-|

eb|-------------------------------------------------|
Bb|-------------------------------------------------|
F#|-------------------------------------------------|
C#|-10-10-10-10-10-10-10-10-10-10-10-10-10-10-10-10-|
G#|-10-10-10-10-10-10-10-10-10-10-10-10-10-10-10-10-|
C#|-10-10-10-10-10-10-10-10-10-10-10-10-10-10-10-10-|

eb|----------------------------------------|
Bb|----------------------------------------|
F#|----------------------------------------|
C#|-8-8--8-8--8-8--8-8--8-8--8-8--8-8--8-8-|
G#|-8-8--8-8--8-8--8-8--8-8--8-8--8-8--8-8-|
C#|-8-8--8-8--8-8--8-8--8-8--8-8--8-8--8-8-|

"No it's common sense"
eb|---------------------------------|
Bb|---------------------------------|
F#|---------------------------------|
C#|-0-0-0-0-0-0-0-0-0-0-0-0-0-0-0-0-|
G#|-0-0-0-0-0-0-0-0-0-0-0-0-0-0-0-0-|
C#|-0-0-0-0-0-0-0-0-0-0-0-0-0-0-0-0-|

eb|-------------------------------------------------|
Bb|-------------------------------------------------|
F#|-------------------------------------------------|
C#|-10-10-10-10-10-10-10-10-10-10-10-10-10-10-10-10-|
G#|-10-10-10-10-10-10-10-10-10-10-10-10-10-10-10-10-|
C#|-10-10-10-10-10-10-10-10-10-10-10-10-10-10-10-10-|

eb|----------------------------------------|
Bb|----------------------------------------|
F#|---------------------10--9--5--10--9--5-|
C#|-8-8--8-8--8-8--8-8---x--x--x---x--x--x-|
G#|-8-8--8-8--8-8--8-8---8--7--3---8--7--3-|
C#|-8-8--8-8--8-8--8-8---------------------|


Basslines:


Verse 3: "Take a look at yourself..."
eb|---------------------------------------------------|
Bb|---------------------------------------------------|
F#|---------------------------------------------------|
C#|-8----0-----8-8--8-8--8-8--8-8--0-0--0-0--0-0--0-0-|
G#|-8----0-----8-8--8-8--8-8--8-8--0-0--0-0--0-0--0-0-|
C#|-8----0-----8-8--8-8--8-8--8-8--0-0--0-0--0-0--0-0-|


Outro: "So why we..."
eb|---------------------------------|
Bb|---------------------------------|
F#|---------------------------------|
C#|-0-0-0-0-0-0-0-0-0-0-0-0-0-0-0-0-|
G#|-0-0-0-0-0-0-0-0-0-0-0-0-0-0-0-0-|
C#|-0-0-0-0-0-0-0-0-0-0-0-0-0-0-0-0-|

eb|-------------------------------------------------|
Bb|-------------------------------------------------|
F#|-------------------------------------------------|
C#|-10-10-10-10-10-10-10-10-10-10-10-10-10-10-10-10-|
G#|-10-10-10-10-10-10-10-10-10-10-10-10-10-10-10-10-|
C#|-10-10-10-10-10-10-10-10-10-10-10-10-10-10-10-10-|

eb|---
Bb|---
F#|---
C#|-8-
G#|-8-
C#|-8-
            
Submit corrections

comments powered by Disqus
↑ Back to top | Just Surrender Chords for Our Work Of Art. Lyrics for acoustic guitar and electric guitar. 1 Tablatures and chords are parodies/interpretations of the original songs. You may use it for private study, scholarship, research or language learning purposes only