» » »

Just Surrender, Our Work Of Art Bass tabs (ver.1)

Artists:  A B C D E F G H I J K L M N O P Q R S T U V W X Y Z # 

Our Work Of Art Bass tabs (ver.1)

Just Surrender Tabs
 Rating:
4/5 (4 votes)
Our Work Of Art lessons Tabs too difficult? Try these video lessons and learn fast
1
                Just Surrender
If These Streets Could Talk
2005

Key: E

Tuning: standard EADG


Intro:

Part 1: "Blood stains sheets"
G|------|
D|------|
A|-idle-
E|------

Part 2: Distortion
G|------------------------------------------------|
D|------------------------------------------------|
A|-2-2-2-4-4--2-2-2-4-4--2-2-2-0-0--0-0--0-0--0-0-|
E|------------------------------------------------|

G|------------------------------------------------|
D|------------------------------------------------|
A|-2-2-2-4-4--2-2-2-4-4--2-2-2-0-0--0-0--0-0--0-0-|
E|------------------------------------------------|

G|-------|
D|-------|
A|-2-2-2-|
E|-------|


Verses: "I Wish that I could walk away"
G|--------------------------------------------------------|
D|--------------------------------------------------------|
A|-0----4-4-4-4-4-4-4-4--0-0-0-0-0-0-0-0--4-4-4-4-4-4-4-4-|
E|--------------------------------------------------------|


"between fact or fiction"
G|--------------------------------------------------------------------|
D|--------------------------------------------------------------------|
A|-0-0-0-0-0-0-0-0--4-4-4-4-4-4-4-4--0-0-0-0-0-0-0-0--4-4-4-4-4-4-4-4-|
E|--------------------------------------------------------------------|


Refrain: "Another seconds"
G|---
D|---
A|-0-
E|---


Chorus: "Blood Stains sheets..."
G|----------------------------------|
D|----------------------------------|
A|-0-0-0-0-0-0-0-0--4-4-4-4-4-4-4-4-|
E|----------------------------------|


"I close my eyes and I believe you..."
G|-------------------------------------------|
D|-------------------------------------------|
A|-0-0-0-0-0-0-0-0--4-4-4-4-4-4-4-4--2--2--2-|
E|-------------------------------------------|


Bridge: "It's a work of Art"
G|----------------------------------|
D|----------------------------------|
A|-4-4-4-4-4-4-4-4--2-2-2-2-2-2-2-2-|
E|----------------------------------|


"from the start..."
G|------------------------------------------|
D|------------------------------------------|
A|-0-0--0-0--0-0--0-0--0-0--0-0--0-0--0--0--|


"No it's common sense"
G|----------------------------------|
D|----------------------------------|
A|-4-4-4-4-4-4-4-4--2-2-2-2-2-2-2-2-|
E|----------------------------------|


"these things to you to you"
G|---------------------------------------|
D|---------------------------------------|
A|-0-0--0-0--0-0--0-0--0-0--0-0--2-2-2-2-|
E|---------------------------------------|


Breakdown:
G|------------|--------------|
D|--------2---|------------1-|
A|-0-0--0---0-|-0-0--2--2----|
E|------------|--------------|
      x3


Bridge: "take a look at yourself..."
G|----------------------------|
D|--------------------------1-|
A|-0---2-4--4-4--4-4--2--2----|
E|----------------------------|


"and everything that you want..."
G|----------------------------------|
D|----------------------------------|
A|-0-0-0-0-0-0-0-0--4-4-4-4-4-4-4-4-|
E|----------------------------------|


Outro: "so why we go if you within"
G|-------------------------------------|
D|-------------------------------------|
A|-4-4-4-4-4-4-4-4--2-2-2-2-2-2-2-2--0-|
E|-------------------------------------|
            
Submit corrections

comments powered by Disqus
↑ Back to top | Just Surrender Bass for Our Work Of Art. Lyrics for acoustic guitar and electric guitar. 1 Tablatures and chords are parodies/interpretations of the original songs. You may use it for private study, scholarship, research or language learning purposes only