>
 >
Our Work Of Art

Our Work Of Art Guitar Tabs

Just Surrender - Our Work Of Art chords, tabs, tablatures, lyrics

Guitar lessons | Add/correct | Request | Top 50 tabs Artists:  A B C D E F G H I J K L M N O P Q R S T U V W X Y Z 0-9

Our Work Of Art Guitar Tabs – Just Surrender

CD, Sheet music, Poster

Do you like Our Work Of Art? Share with your friends now
Bass TabsChordsChords v2TabsUkulele
-------------------------------------------------------------------------------
-------------------------------------------------------------------------------
Tuning: Drop C#: C# Ab Db Gb Bb Eb

I think this is the first / original tab for this song. Feel free to spread it
*edit 3/4/10 I can't believe i submitted that tab it was so wrong in retrospect. I am 
Jon Mitchells version from guitar pro to a smaller format, this version is much better.

Intro: 2x Listen for the x355
eb|-------------------|
Bb|-------------------|
Gb|-----10--9---10----| 2X
Db|--10-10--10--10----|
Ab|--8----------------|
Db|--8----------------|

eb|-------------------|
Bb|-------------------|
Gb|-----10--9---10----| 2X
Db|--10-10--10--10----|
Ab|--0----------------|
Db|--0----------------|

eb|-------------------|
Bb|-------------------|
Gb|----5----5---5-----|
Db|----5----5---5-----|
Ab|----3----3---3-----|
Db|-------------------|

Riff: Rhythem
|-------------------|-------------------|
|-------------------|-------------------|
|------------5--5-5-|------------5--5-5-|
|-0----------5--5-5-|-0----------5--5-5-|
|-0----------3--3-3-|-0----------3--3-3-|
|-0--0-0-0-0--------|-0--0-0-0-0--------|
  PM * * * *             * * * *
|-----------------------|-----------------|
|-----------------------|-----------------|
|-----------------------|-----------5-5-5-|
|-10-10---10-10---10-10-|---10-10---5-5-5-|
|--8--8----8--8----8--8-|----8--8---3-3-3-|
|--8--8----8--8----8--8-|----8--8---------|


Riff Lead
|-------------------|-------------------|-----------------------------|
|-------------------|-------------------|-----------------------------|
|------------9-10-9-|------------9-10-9-|------------12--14--12-------|
|-0----------x--x-x-|-0----------x--x-x-|-0----------x---x--x---------|
|-0----------7--8-7-|-0----------7--8-7-|-0----------10--12--10-------|
|-0--0-0-0-0--------|-0--0-0-0-0--------|-0--0-0-0-0------------------|
 PM * * * *              * * * *             * * * *

|-----------------------|-----------------|
|-----------------------|-----------------|
|-----------------------|-----------5-5-5-|
|-10-10---10-10---10-10-|---10-10---x-x-x-|
|--8--8----8--8----8--8-|----8--8---3-3-3-|
|--8--8----8--8----8--8-|----8--8---------|

Verse (Eigth Notes)
|------|---------------------|
|------|---------------------|
|------|---------------------|
|-10~--|--0----0----8----8---|
|--8~--|--0----0----8-|--8---|
|--8~--|--0----0----8----8---|
       PM *    *    *    *
Lead
|---------------------|-----------------------|
|---------------------|-----------------------|
|-10---10---10---10---|-10---10---10---10-----|
|--x----x----x--------|--x----x----x----x-----|
|--8----8----8----8---|--8----8----8----8-----|
|---------------------|-----------------------|

Prechorus: Lead
|--------------------|------------------------|---------------------|-------|
|--------------------|------------------------|---------------------|-------|
|-----10--------9----|---------10--------9----|------10--------9----|-^-9---|
|--10--------10---10-|------10--------10---10-|---10--------10---10-|-^10---|
|--------8-----------|------------8-----------|---------8-----------|-^-0---|
|-8---------8--------|---8----------8---------|-8---------8---------|-^-0---|
Rythem
|----------------------|------------------------|---------------------|
|----------------------|------------------------|---------------------|
|----------------------|------------------------|---------------------|
|-10-------------------|-(10)-------------------|-8--8--8-8-----------|
|--8-------------------|--(8)-------------------|-8--8--8-8-----------|
|--8-------------------|--(8)-------------------|-8--8--8-8-----------|
						PM*  *  * *

Chorus
|-------------------------|-------------------------|
|-------------------------|-------------------------|
|-------10-10--9--9-10-10-|-------10-10--9--9-10-10-|
|-10-10-10-10-10-10-10-10-|-10-10-10-10-10-10-10-10-|
|--8--8--8--8--8--8--8--8-|--8--8--8--8--8--8--8--8-|
|--8--8--8--8--8--8--8--8-|--8--8--8--8--8--8--8--8-|

|-------------------------|-------------------------|----------|
|-------------------------|-------------------------|----------|
|-------10-10--9--9-10-10-|-------10-10--9--9-10-10-|---5--5-5-|
|-10-10-10-10-10-10-10-10-|-10-10-10-10-10-10-10-10-|---5--5-5-|
|--0--0--0--0--0--0--0--0-|--0--0--0--0--0--0--0--0-|---3--3-3-|
|--0--0--0--0--0--0--0--0-|--0--0--0--0--0--0--0--0-|----------|

Breakdown
|-------------------------------|---------------------------------|
|-------10------10-------8h=10--|---------10------10--------------|
|---10------10------10----------|-----10------10------10---9h=10--|
|-8-(8)-(8)-(8)-(8)-(8)-(8)-(8)-|--8--(8)-(8)-(8)-(8)-(8)-(8)-(8)-|
|-------------------------------|---------------------------------|
|-------------------------------|---------------------------------|

|----------------------|--------------------------|
|----------------------|--------------------------|
|----------------------|--------------------------|
|------------10-10-----|------------10-10---------|
|--------7h8-------7h8-|--------7h8---------------|
|--8--8----------------|--8--8--------------------|

|-----------------------|--------------------------|
|-----------------------|--------------------------|
|------------------9h10-|--------------------------|
|------------10-10------|------------10-10---------|
|--------7h8------------|--------7h8---------------|
|--0--0-----------------|--0--0--------------------|



| /  slide up
| \  slide down
| h  hammer-on
| p  pull-off
| ~  vibrato
| +  harmonic
| x  Mute note
===============================================================================





Comments


Popular Just Surrender tabs & chords
Carried Away Chords
I Said It Before Chords
New Declaration Chords
Our Work Of Art 1 Chords
I Can Barely Breathe Tabs
Dont Forget Ukulele
I Said It Before Ukulele
My Silhouette Ukulele
New Declaration Ukulele
What Weve Become Ukulele


Song lyrics



↑ Back to top | Tablatures and chords are parodies/interpretations of the original songs. You may use it for private study, scholarship, research or language learning purposes only
© 2014 AZChords.com Contact us | Privacy policy | DMCA | Add/correct tabs | Request tabs | Top 50 tabs