» » »

Journey, After All These Years Tabs (ver.3)

Artists:  A B C D E F G H I J K L M N O P Q R S T U V W X Y Z # 

After All These Years Tabs (ver.3)

Journey Tabs
 Rating:
4/5 (7 votes)
After All These Years lessons Tabs too difficult? Try these video lessons and learn fast
1
                (Intro)
e|----------14-------14---------|----------14-------14-------|
b|-----16-14---16--14---16------|-----16-14---16--14---16----|
g|------------------------------|----------------------------|
d|------------------------------|----------------------------|
a|------------------------------|----------------------------|
e|------------------------------|----------------------------|

e|-----------------------------------------|
b|---16/17-19-21---------------17----------|
g|---------------16---16-18-20----18-------|
d|-----------------------------------------|
a|-----------------------------------------|
e|-----------------------------------------|
            
Submit corrections

comments powered by Disqus
↑ Back to top | Journey Tabs for After All These Years. Lyrics for acoustic guitar and electric guitar. 1 Tablatures and chords are parodies/interpretations of the original songs. You may use it for private study, scholarship, research or language learning purposes only