» » »

Journey, After All These Years Tabs (ver.2)

Artists:  A B C D E F G H I J K L M N O P Q R S T U V W X Y Z # 

After All These Years Tabs (ver.2)

Journey Tabs
Rating:
0/5 (0 votes)
Hard to play? Try these video lessons and learn fast.
                AFTER ALL THESE YEARS
Journey


b - bend
r - release bend
/ - slide up
\ - slide down
h - hammer on

May be you want to adjust on solo it's up to the chords you will used..........injoy!



 Intro


e---------14---------14----|--------14--------14-------|
b---16-14----16--14----16--|-16--14---16---14----16----|
g--16----------------------|-16------------------------|
d--------------------------|---------------------------|
a--------------------------|---------------------------|
e--------------------------|---------------------------|


---------------------------|---------------------------|
-17--19--19b21r------------|---------------------------|
----------------16---------|16--18--20--18---16\15-----|
---------------------------|------------------------16-|
---------------------------|---------------------------|
---------------------------|---------------------------|
Verse I:
B                           Abm
A faded wedding photograph, you and me in our first dance
E                                      F#m
Your eyes are closed we’re lost in one sweet embrace
B                                         Abm
Since those days the world has changed, but our love remains the same
E                                F#m
God knows we've had our share of saving grace
          Abm                                F#m
And I'm proud of all the blessings you have given me
     Abm                                  E
The mountains we have climbed to get this far
       C#m                   C#m7              E
You’ve learned to take the laughter with the tears
F#m                   
After all these years



e---------14---------14----|--------14--------14-------|
b---16-14----16--14----16--|-16--14---16---14----16----|
g--16----------------------|-16------------------------|
d--------------------------|---------------------------|
a--------------------------|---------------------------|
e--------------------------|---------------------------|


---------------------------|---------------------------|
-17--19--19b21r------------|----------------------17---|
----------------16---------|16--18--20--18---15h16-----|
---------------------------|------------------------16-|
---------------------------|---------------------------|
---------------------------|---------------------------|

B                           Abm     
You make it feel brand new, after the fires that we walked through
E                         F#m
Against the odds we never lost our faith
B                                  Abm
In our hearts we've made our home, where our children all have grown
E                             F#m 
Precious moments time can not erase
  Abm                                    F#m
We’ve been  livin' up and down the gypsy highway
  Abm                               E
Seasons that we've learned to share apart
E
Somehow in my heart I always keep you near 
B
After all these years

CHORUS:
                Abm        E            B                            F#
After all these years you stood by me the days and nights that I was gone
                Abm         E            B                           F#
After all these years you sacrificed, believed in me and you stood strong
C#m                         C#m7            E
Cause with our love there's nothing left to fear
E              B
After all these years

Solo: B-Abm-E-F#-B
e---------14---------14-------------------------------|
b---16-14----16--14----16---14b------14--12-----------|
g-------------------------------------------13--11----|
d-----------------------------------------------------|
a-----------------------------------------------------|
e-----------------------------------------------------|

e-------141516b-16-14------------------------16171819b-|
b---1416-------------16-14h1514-------161718----------|
g-16-----------------------------16--/18---------------|
d------------------------------------------------------|
a------------------------------------------------------|
e------------------------------------------------------|

                  
e-1919---1818---1616------------192021b23-23br21b23----|
b----------------------1919--/21-----------------------|
g------------------------------------------------------|
d------------------------------------------------------|
a------------------------------------------------------|
e------------------------------------------------------|


e-21b23----21b23----21b23----21--19----19-21----------|
b--------------------------------------------19-------|
g-----------------------------------------------------|
d-----------------------------------------------------|
a-----------------------------------------------------|
e-----------------------------------------------------|


e-------------19-------------------------------------|
b-16-17-19--19--17-16h1716-19-17-16h1716-------------|
g----------------------------------------18b-16-18b--|
d----------------------------------------------------|
a----------------------------------------------------|
e----------------------------------------------------|



e----------------------------------------------------|
b-----------16h1716---------------16171819b-19b--19b-|
g-16h1816h18-------18-16h1816-1618-------------------|
d----------------------------------------------------|
a----------------------------------------------------|
e----------------------------------------------------|

Repeat CHORUS
            

comments powered by Disqus
↑ Back to top | Journey Tabs for After All These Years. Lyrics for acoustic guitar and electric guitar. Tablatures and chords are parodies/interpretations of the original songs. You may use it for private study, scholarship, research or language learning purposes only