» » »

Faithfully Tabs (ver.1)

Artists:  A B C D E F G H I J K L M N O P Q R S T U V W X Y Z # 

Faithfully Tabs (ver.1)

Journey
Rating:
3/5 (1 vote)

Hard to play? Try these video lessons and learn fast.
                Band: Journey
Tuning: Standard

Yup this is the full song, nothing missing.  I noticed none of the other tabs had the
part arranged for guitar so i went ahead and included that, too.  the piano part is really
and it took me forever to learn, so if you want, you could just do the regular guitar 
 be generous- dont base the rating on the complicatedness :) (it took me a loooooong time)

guitar 1: piano arr. for finger picked guitar
guitar 2: light distortion, slight reverb

Intro: guitar 1
e|-------------------------------------------------------------------------|
B|-------4--------------5-------4------------------4----(4)---4------------|
G|-------4-------6------4----------------4---6----------------4-------6----|
D|--4---------4-----4------4--------------------------------------6--------|
A|-------------------------------------------------------------------------|
E|--7---------------7----------------7-------------------4-----------------|

e|-------------------------------------------------------------------------|
B|------5-------4---------------4-------4-------2-------5-------4----------|
G|----------------------4---6-----------4---------------4---------------4--|
D|----------6-------6-----------------------4---------------4-------4------|
A|-------------------------------------------------------------------------|
E|--4---4-----------------------4---2---------------2---2------------------|

e|----------0-------0-----------0------------|
B|------------------------------0------------|
G|----------1-------1-------3----------------|
D|--4-----------2-------2-------2------------|
A|------2------------------------------------|
E|----------0--------------------------------|

No guitar 2 intro

Verse: guitar 1                        (Into the midnight sun...)
e|-------------------------------------------------------------------------|
B|------4---------------5-------4----------(4)---4----------------5--------|
G|------4-------6-------4------------------------4--------6-------4-------6|
D|--4-------4-------4-------4-----------4-------------6---------------6----|
A|-------------------------------------------------------------------------|
E|--7---------------7---------------7-------4-----------------4---4--------|
                        (Wheels go 'round and 'round...)
e|--------------------------0-------0-----------0--------------------------|
B|------4---------------------------------------0--------------4-----------|
G|--------------4-----------1-------1-----------1--------------4-------6---|
D|--6-------6-------6-----------2-----------2--------------4-------4------4|
A|--------------------------------------2----------------------------------|
E|----------------------7---0------------------------------7-------7------7|

e|-------------------------------------------------------------------------|
B|--5-------4---------------4----------------------------------------------|
G|--4---------------4---6--------------------------------------------------|
D|------4-----------4---4---4----------------------------------------------|
A|-------------------------------------------------------------------------|
E|--------------7----------------------------------------------------------|

verse: guitar 2
 (Into the midnight sun...)         (You're on my mind...)
e|-------------------------------------------------------------------------|
B|-----------(7)-------------------------------------------------4/6/7\6/7-|
G|-----------------------------------------------------------8-------------|
D|-------------------------------------------------------------------------|
A|-------------------------------------------------------------------------|
E|-------------------------------------------------------------------------|

Pre-chorus 1: guitar 1
e|-----------0---------------------------------------------------------0---|
B|-------5-------0-----------4------------4-----7------7-------0-----------|
G|-------------------------------4--------4-----4------6-------------------|
D|-------6-------------------6--------4------4-------------4---------------|
A|--7----------------6----------------------------------------------------9|
E|-----------------------4------------7---7--------7---------------7-------|

e|--0----------------------------------------------------------------------|
B|------7-------------5-------5-------4------4---------------4-------------|
G|------8-------------4-----------4----------4-------4-------4-------------|
D|--11------9---------6---6----------------------6-------6-------6---------|
A|-------------9------7----------------------------------------------------|
E|------7---------7----------------------4---4-----------------------7-----|
                                                   (and lovin a...)
e|-------------------------------0---0-------------------------------------|
B|------7---7--------7-------5---0---0---5-------4-------5-------5---------|
G|------4---4--------6-----------------------------------4-----------4-----|
D|--4---4----------------4---6-----------6-------4-------6-------6-----6---|
A|-------------------------------------------------------7---7-----------6-|
E|--7------------7-------7-------------------7-------7---------------------|

e|-------------------------------------------------------0-----------------|
B|--4--------------4------------4--------7-------7-------0-----------7-----|
G|--4------------------4-----------------4-------6-------------8-----------|
D|------4--6---------------4----4---4----------------4---------------11--8-|
A|----------------------------------------------------------------9--------|
E|--4----------4----------------7------------7--------------7------------7-|

pre-chorus: guitar 2
                                                          (Lovin' a music)
e|-------------------------------------------------------------------------|
B|--12--(12)---------------------------------------------------------------|
G|------------11--(11)--8----(8)---------8---------------------------------|
D|---------------------------------9/11-----9------------------------------|
A|---------------------------------------------9/11\9-------(9)------------|
E|-------------------------------------------------------------------------|

chorus: guitar 1
 (oh   girl...        you stand...         by       me...)
e|--------------2--------------------------------------2-----------------2-|
B|--2--------2-----2-----------------------------2--------------------0--2-|
G|--3-----3-----------3--8------8------11--------3-----3--------3----------|
D|-----4-----4------------------8------8---8--------4--------4--4-----6----|
A|---------------------------9----------------9----------------------------|
E|--2--------------------11--------11------------2--------2--------2-------|
  (I'm forever yours...)                                (Faithfully)
e|-------------------------------------------------------------------------|
B|-----------5-----5-----5--5-----4------------5---------------------------|
G|-----3-----6-----6-----6--6-----4------------4---------------------------|
D|--4-----4--6-----6-----6--6-----4------------6---------------------------|
A|-----------4--------4--------4--6------------7---------------------------|
E|--------------0----------------------------------------------------------|

chorus: guitar 2
(Faithfully...)
e|-------------------------------------------------------------------------|
B|---------------12-----------------------------12-------------------------|
G|-------------------11----9---8--9--11~------------11----9---8--9--11~----|
D|-------------------------------------------------------------------------|
A|-------------------------------------------------------------------------|
E|-------------------------------------------------------------------------|

e|-------------------------------------------------------------------------|
B|--12----------------------12---------------------------------------------|
G|------11----9---8--9--11------13-----------------------------------------|
D|-------------------------------------------------------------------------|
A|-------------------------------------------------------------------------|
E|-------------------------------------------------------------------------|

no guitar 1 outro

Outro/Solo: Guitar 2
e|-------------------------------------------------------------------------|
B|-------------------------------------------------------------------------|
G|--0--18b-18--20b--18--16--18b-18--20b--18--16--18b-18--20b--18--16--16---|
D|-------------------------------------------------------------------------|
A|-------------------------------------------------------------------------|
E|-------------------------------------------------------------------------|

e|--14--18--19--18b--16----------------------------------------------------|
B|-----------------------19--19b--17--16--17/19--17b--17b--17--16--17b--17b|
G|-------------------------------------------------------------------------|
D|-------------------------------------------------------------------------|
A|-------------------------------------------------------------------------|
E|-------------------------------------------------------------------------|

e|-------------------------------------------------------------------------|
B|--17b--16--17--16--14--16--16b--14--16--14-------14--16--14--------------|
G|--------------------------------------------16b--------------16--13--16--|
D|-------------------------------------------------------------------------|
A|-------------------------------------------------------------------------|
E|-------------------------------------------------------------------------|

e|-------------------------------------------------------------------------|
B|----------12----------------------------------------12--14b-12--14--12-19|
G|--13--11------11--13--11------------------------11-----------------------|
D|--------------------------13\11--11b--9--11\13---------------------------|
A|-------------------------------------------------------------------------|
E|-------------------------------------------------------------------------|

e|--19-------19-------19--------19---------19--------19--------19----------|
B|------19b------19b------19b-------19b--------19b-------19b-------19b-----|
G|-------------------------------------------------------------------------|
D|-------------------------------------------------------------------------|
A|-------------------------------------------------------------------------|
E|-------------------------------------------------------------------------|

e|--19--------19----------19--------19--------19----------19---------19----|
B|------19b--------19b--------19b--------19b-------19b--------19b-------19b|
G|-------------------------------------------------------------------------|
D|-------------------------------------------------------------------------|
A|-------------------------------------------------------------------------|
E|-------------------------------------------------------------------------|

e|--19--------19----------19-------19b--19--16--19--19--16--19--16--19-----|
B|------19b--------19b--------19b------------------------------------------|
G|-------------------------------------------------------------------------|
D|-------------------------------------------------------------------------|
A|-------------------------------------------------------------------------|
E|-------------------------------------------------------------------------|

e|--19b--19b--19b--19b--16-------------------------------------------------|
B|--------------------------19--21--19-------------------------------------|
G|--------------------------------------18b--16------16--18b--18--20b--18b-|
D|-----------------------------------------------18------------------------|
A|-------------------------------------------------------------------------|
E|-------------------------------------------------------------------------|

e|-------------------------------------------------------------------------|
B|-------------------------------------------------------------------------|
G|--16---16----------------------------------------------------------------|
D|------------16---18~-----------------------------------------------------|
A|-------------------------------------------------------------------------|
E|-------------------------------------------------------------------------|
            
Hard to play? Try these video lessons and learn fast. | Correct




comments powered by Disqus
↑ Back to top | Tablatures and chords are parodies/interpretations of the original songs. You may use it for private study, scholarship, research or language learning purposes only