>
 >
Mist

Mist Guitar Tabs

John Butler Trio - Mist chords, tabs, tablatures, lyrics

Guitar lessons | Add/correct | Request | Top 50 tabs Artists:  A B C D E F G H I J K L M N O P Q R S T U V W X Y Z 0-9

Mist Guitar Tabs – John Butler Trio

CD, Sheet music, Poster

Do you like Mist? Share with your friends now
Tabs

				---- MIST ----

			   Music & Lyrics by John Butler
	          From the album "Sunrise Over Sea" By The John Butler Trio


Alright, here's mist, its played in Drop D (DADGBE) with a cap on 2, on a six.
Its played very fast, hope you can get the timing.

RIFF A:
(0:00)
|----------------------------------------------------|
|-------1h3-1----------------------------------------|
|------0------2-0---0-2p0----------------------------|
|-----0-----------3-------3-2p0---0h2-----0---0------|
|-------------------------------0-----0h3------------|
|--0------------------0---------------------0--------|

Riff B:
(0:04)
|----------------------------------------------------|
|------1h3-1---------------------------1-------------|
|-----0------2-0---0-2p0---0h2---2p0-----0-----------|
|----0-----------3-------0-----0---------------------|
|----------------------------------------------------|
|--------------------0---------------0-----0---------|

then Riff A, Riff B, Riff B, Riff A, Riff B, then 

(0:22)
|------------------------------------------------------------------|
|---1h3-1------------------------------------5h6p5---5h6p5---------|
|--0------2-0---0-2p0-----------------0--5h7-------0-------7-------|
|-0-----------3-------3-2p0---0h2----------------------------------|
|---------------------------0-----0h3------------------------------|
|-----------------0-----0----------------0-----------0-------------|

(0:27)
|--------------------8---------------------------------------------|
|------5h6p5---5h6p5---------------5h6p5---5h6p5---0---------------|
|--5h7-------0-----------------5h7-------0-------7-----------------|
|------------------------------------------------------------------|
|------------------------------------------------------------------|
|--0-----------0---------------0-----------0-----------------------|

(0:29)
|------------------------------------------------------------------|
|------5h6p5---5h6p5---------------5h6p5---5h6p5-8-----------------|
|--5h7-------0-----0-----------5h7-------0-------------------------|
|------------------------------------------------------------------|
|------------------------------------------------------------------|
|--0-----------0-----0---------0-----------0-----------------------|

(0:33)
|----------------5-------------------------------------------------|
|------5h6p5---5---------5h6p5---5h6p5-6p5-8---5---5h6p5-6p5-----0-|
|--5h7-------0-------5h7-------0-----------------0-----------0-7---|
|------------------------------------------------------------------|
|------------------------------------------------------------------|
|--0-----------0-----0-----------0-----------0-----------------0---|

(0:37)   (RIFF C)
|--8h10-8----------------------------------------------|
|---------10-8-10p8---8h10p8----8--------5-------------|
|-------------------0--------10---9p0-0h7--0h5---------|
|------------------------------------------------------|
|------------------------------------------------------|
|--0-----------0------0--------------------------------|

(0:40)   (RIFF D)
|--8h10------------------------------------------------|
|-------10-8-10p8---8h10p8-10p8---8h10-8-10~--10p8h10--|
|-----------------0-------------0----------------------|
|------------------------------------------------------|
|------------------------------------------------------|
|--0---------0-------------0-------------0-------------|

then Riff C, then Riff D with an open bass note instead of the bend at 10, then:

|-------------------------------------------------------------|
|-------------------------------------------------------------|
|--------5h7p5---5h7p5-------------5h7p5---5h75-7-------------|
|--5h7p5-------0-------------5h7p5-------0--------------------|
|-------------------------------------------------------------|
|--0-------------------x-----0--------------------------------|

(0:51)
|-------------------------------------------------------------|
|-------------------------------------------------------------|
|--------5h7p5---5h7p5-----------5h7p5---5-----0--------------|
|--5h7p5-------0-------7-----5h7-------0---0------------------|
|-------------------------------------------------------------|
|--0-------------------0-----0---------------0----------------|

|-------------------------------------------------------------|
|-------------------------------------------------------------|
|--------5h7p5---5h7p5-------------5h7p5---5h7p5-7------------|
|--5h7p5-------0-------7-----5h7p5-------0--------------------|
|-------------------------------------------------------------|
|--0-------------------0-x---0--------------------------------|

(0:58)
|------------------------------------------------------------------|
|------------------------------------------------------------------|
|--------5h7p5---5h7p5-----------5h7p5---5-------------------------|
|--5h7p5-------0-------7-----5h7-------0---------------------------|
|------------------------------------------------------------------|
|--0-------------------0-----0--------------x----------------------|

|------------------------------------------------------------------|
|------------------------------------------------------------------|
|--------5h7p5---5h7p5---0-------5h7p5---5h7p5p0-------------------|
|--5h7p5-------0-------7-----5h7-------0---------0-----------------|
|------------------------------------------------------------------|
|--0-------------------0-----0-------------------------------------|

(1:04) Strum the following notes, dont forget to supply the sick drums, ha
|-------------------|  |----3--3--3--3--3---|
|-------------------|  |----x--x--x--x--x---|
|---2--4--5--4--0---|  |----2--4--5--4--0---|
|-------------------|  |--------------------|
|-------------------|  |--------------------|
|-------------------|X2|--------------------|X2

Then pick this riff three times
(1:27)  (Riff E)
|----------------------------------------------|
|------3-----------3---------------------------|
|----2---2-----2-----2-------------------------|
|----------------------------------------------|
|----------------------------------------------|
|--0---------0---0-----------------------------|

(1:31)
|-------------------------------------------------------------------------|
|-----3-------3---3------------------------3-----3-----3-----3-----3----3-|
|-----------0-------------------------------------------------------------|
|-------oh3-----2----then-riff-E-into--------0h2---2h3---0h2---2h3---0h2--|
|-0h3----------------------------------0h3--------------------------------|
|-------------------------------------------------------------------------|

|-----------------------------------------------------------------------|
|---3---------------------------------3---3---3---3---3---3---3---3-----|
|----------------------------------------------0h2-2h3-0h2--0-----------|
|-0------------------------------------0h2-2h3------------------3-------|
|-----3~---then-riff-E--into-------0h3----------------------------------|
|--------------------------------------------------------------------0--|

(1:51)
|----------------------------------------------------|
|------1h3-1---------------------------1-------------|
|-----0------2-0---0-2p0---0h2---2p0-----0-----------|
|----0-----------3-------0-----0-------------0-------|
|----------------------------------------------------|
|--------------------0---------------0-----0---------|

|----------------------------------------------------|
|-------1h3-1----------------------------------------|
|------0------2-0---0-2p0----------------------------|
|-----0-----------3-------3-2p0---0h2-----0---0------|
|-------------------------------0-----0h3------------|
|--0------------------0---------------------0--------|

(1:57)
|----------------------------------------------------|
|------1h3-1---------------------------3-------------|
|-----0------2-0---0-2p0---0h2---2p0-----0-----------|
|----0-----------3-------0-----0---------------------|
|----------------------------------------------------|
|--------------------0---------------0-----0---------|

(2:00)
|-------------------------------------------|
|-------1h3-1-------------------------------|
|------0------2-0---0-2p0-------------------|
|-----0-----------3-------3-2p0---0h2-----0-|
|-------------------------------0-----0h3---|
|--0------------------0---------------------|

(2:03) I love this bit, hard to get down, just play as fast as you can.
|------------------------------------------------------------------|
|------------------------------------------------------------------|
|------------------------------------------------------------------|
|------0h2p0---0h2p0-------------0h2p0---0h2p0--5------------------|
|--3h5-------0-------3-------3h5-------0---------------------------|
|------------------------------------------------------------------|

|------------------------------------------------------------------|
|------------------------------------------------------------------|
|------------------------------------------------------------------|
|------0h2p0---0h2p0-2p0-3-2p0---0h2p0-2p0-------------------------|
|--3h5-------0-----------------0-----0-----0h3~--------------------|
|------------------------------------------------------------------|

(2:09)
|------------------------------------------------------------------|
|------------------------------------------------------------------|
|-----------------------------------------------5------------------|
|------0h2p0---0h2p0-------------0h2p0---0h2p0---------------------|
|--3h5-------0-------3-------3h5-------0---------------------------|
|------------------------------------------------------------------|

|------------------------------------------------------------------|
|------------------------------------------------------------------|
|------------------------------------------------------------------|
|------0h2p0---0h2p0-2p0-3-2p0---0h2p0-2p0----0--------------------|
|--3h5-------0-----------------0-----0-----0--0--------------------|
|---------------------------------------------0-----------===------|



easy mate


LEGEND
h= hammer on
p= pullof
~= bend/sustain
x= mute/slap strings





Comments


Popular John Butler Trio tabs & chords
Betterman Chords
Peaches And Cream 1 Chords
Gone Tabs
Life Ain't What It Seems Tabs
Mystery Man 1 Tabs
Ocean Live Tabs
Old Man Intro Tabs
One Way Road Intro Tabs
Sometimes Tabs
What You Want Ukulele


Song lyrics



↑ Back to top | Tablatures and chords are parodies/interpretations of the original songs. You may use it for private study, scholarship, research or language learning purposes only
© 2014 AZChords.com Contact us | Privacy policy | DMCA | Add/correct tabs | Request tabs | Top 50 tabs